ISO-10303-21;
HEADER;
FILE_DESCRIPTION (( 'STEP AP203' ),
    '1' );
FILE_NAME ('TFT-5G-402_3D.step',
    '2022-09-29T15:34:10',
    ( '' ),
    ( '' ),
    'SwSTEP 2.0',
    'SolidWorks 2021',
    '' );
FILE_SCHEMA (( 'CONFIG_CONTROL_DESIGN' ));
ENDSEC;

DATA;
#1 = CARTESIAN_POINT ( 'NONE',  ( 0.000000000000000000, 0.000000000000000000, -0.8499999999999999778 ) ) ;
#2 =( NAMED_UNIT ( * ) PLANE_ANGLE_UNIT ( ) SI_UNIT ( $, .RADIAN. ) );
#3 = LOCAL_TIME ( 8, 34, 10.00000000000000000, #293 ) ;
#4 = FACE_BOUND ( 'NONE', #143, .T. ) ;
#5 = DIMENSIONAL_EXPONENTS ( 1.000000000000000000, 0.000000000000000000, 0.000000000000000000, 0.000000000000000000, 0.000000000000000000, 0.000000000000000000, 0.000000000000000000 ) ;
#6 = DIRECTION ( 'NONE',  ( -1.000000000000000000, 0.000000000000000000, -0.000000000000000000 ) ) ;
#7 = CARTESIAN_POINT ( 'NONE',  ( 0.000000000000000000, 0.000000000000000000, -1.050000000000000044 ) ) ;
#8 = DIRECTION ( 'NONE',  ( 1.000000000000000000, 0.000000000000000000, 0.000000000000000000 ) ) ;
#9 = CARTESIAN_POINT ( 'NONE',  ( 0.000000000000000000, 0.000000000000000000, -1.050000000000000044 ) ) ;
#10 = EDGE_LOOP ( 'NONE', ( #13 ) ) ;
#11 = APPROVAL_DATE_TIME ( #261, #70 ) ;
#12 = CARTESIAN_POINT ( 'NONE',  ( 0.000000000000000000, 0.000000000000000000, -0.5999999999999999778 ) ) ;
#13 = ORIENTED_EDGE ( 'NONE', *, *, #205, .F. ) ;
#14 = AXIS2_PLACEMENT_3D ( 'NONE', #9, #279, #120 ) ;
#15 = PERSON_AND_ORGANIZATION ( #201, #77 ) ;
#16 = COORDINATED_UNIVERSAL_TIME_OFFSET ( 8, 0, .BEHIND. ) ;
#17 = CARTESIAN_POINT ( 'NONE',  ( -0.06900000000000000577, 0.000000000000000000, -0.8499999999999999778 ) ) ;
#18 = APPLICATION_PROTOCOL_DEFINITION ( 'international standard', 'config_control_design', 1994, #253 ) ;
#19 = APPROVAL_ROLE ( '' ) ;
#20 = AXIS2_PLACEMENT_3D ( 'NONE', #26, #117, #25 ) ;
#21 = ADVANCED_FACE ( 'NONE', ( #80, #192 ), #81, .T. ) ;
#22 = VERTEX_POINT ( 'NONE', #296 ) ;
#23 = CC_DESIGN_SECURITY_CLASSIFICATION ( #112, ( #220 ) ) ;
#24 = PLANE ( 'NONE',  #294 ) ;
#25 = DIRECTION ( 'NONE',  ( 1.000000000000000000, 0.000000000000000000, 0.000000000000000000 ) ) ;
#26 = CARTESIAN_POINT ( 'NONE',  ( 0.000000000000000000, 0.000000000000000000, 0.000000000000000000 ) ) ;
#27 = DIRECTION ( 'NONE',  ( 0.000000000000000000, 0.000000000000000000, 1.000000000000000000 ) ) ;
#28 = DIRECTION ( 'NONE',  ( -1.000000000000000000, 0.000000000000000000, -0.000000000000000000 ) ) ;
#29 = DIRECTION ( 'NONE',  ( -1.000000000000000000, 0.000000000000000000, 0.000000000000000000 ) ) ;
#30 = AXIS2_PLACEMENT_3D ( 'NONE', #206, #95, #29 ) ;
#31 = PRODUCT_DEFINITION ( 'UNKNOWN', '', #220, #187 ) ;
#32 = EDGE_LOOP ( 'NONE', ( #287 ) ) ;
#33 = ADVANCED_BREP_SHAPE_REPRESENTATION ( 'TFT-5G-402_3D', ( #51, #89 ), #215 ) ;
#34 = ORIENTED_EDGE ( 'NONE', *, *, #297, .T. ) ;
#35 = EDGE_LOOP ( 'NONE', ( #214 ) ) ;
#36 = ADVANCED_FACE ( 'NONE', ( #257, #57 ), #123, .F. ) ;
#37 = ORIENTED_EDGE ( 'NONE', *, *, #268, .T. ) ;
#38 = PERSON_AND_ORGANIZATION ( #201, #77 ) ;
#39 = CIRCLE ( 'NONE', #237, 0.01850000000000000255 ) ;
#40 = VERTEX_POINT ( 'NONE', #108 ) ;
#41 = CALENDAR_DATE ( 2022, 29, 9 ) ;
#42 = DATE_AND_TIME ( #41, #251 ) ;
#43 = ADVANCED_FACE ( 'NONE', ( #4, #223 ), #67, .T. ) ;
#44 =( LENGTH_UNIT ( ) NAMED_UNIT ( * ) SI_UNIT ( $, .METRE. ) );
#45 = CARTESIAN_POINT ( 'NONE',  ( 0.000000000000000000, 0.000000000000000000, -1.219999999999999973 ) ) ;
#46 = CARTESIAN_POINT ( 'NONE',  ( 0.000000000000000000, 0.000000000000000000, -1.050000000000000044 ) ) ;
#47 =( NAMED_UNIT ( * ) SI_UNIT ( $, .STERADIAN. ) SOLID_ANGLE_UNIT ( ) );
#48 = CYLINDRICAL_SURFACE ( 'NONE', #110, 0.08000000000000000167 ) ;
#49 = FACE_BOUND ( 'NONE', #35, .T. ) ;
#50 = AXIS2_PLACEMENT_3D ( 'NONE', #118, #135, #275 ) ;
#51 = MANIFOLD_SOLID_BREP ( 'Boss-Extrude5', #208 ) ;
#52 = CYLINDRICAL_SURFACE ( 'NONE', #176, 0.06900000000000000577 ) ;
#53 = DIRECTION ( 'NONE',  ( -1.000000000000000000, 0.000000000000000000, 0.000000000000000000 ) ) ;
#54 = EDGE_LOOP ( 'NONE', ( #283 ) ) ;
#55 = ORIENTED_EDGE ( 'NONE', *, *, #249, .T. ) ;
#56 = APPLICATION_CONTEXT ( 'configuration controlled 3d designs of mechanical parts and assemblies' ) ;
#57 = FACE_OUTER_BOUND ( 'NONE', #125, .T. ) ;
#58 = AXIS2_PLACEMENT_3D ( 'NONE', #7, #276, #69 ) ;
#59 = DIRECTION ( 'NONE',  ( -0.000000000000000000, -0.000000000000000000, 1.000000000000000000 ) ) ;
#60 = PERSON_AND_ORGANIZATION ( #201, #77 ) ;
#61 = PERSON_AND_ORGANIZATION_ROLE ( 'creator' ) ;
#62 = CARTESIAN_POINT ( 'NONE',  ( -0.05650000000000000161, 0.000000000000000000, -1.219999999999999973 ) ) ;
#63 = PERSON_AND_ORGANIZATION ( #201, #77 ) ;
#64 = AXIS2_PLACEMENT_3D ( 'NONE', #157, #225, #28 ) ;
#65 = DIRECTION ( 'NONE',  ( 0.000000000000000000, 0.000000000000000000, -1.000000000000000000 ) ) ;
#66 = FACE_OUTER_BOUND ( 'NONE', #230, .T. ) ;
#67 = PLANE ( 'NONE',  #72 ) ;
#68 = DIRECTION ( 'NONE',  ( -1.000000000000000000, 0.000000000000000000, 0.000000000000000000 ) ) ;
#69 = DIRECTION ( 'NONE',  ( -1.000000000000000000, 0.000000000000000000, 0.000000000000000000 ) ) ;
#70 = APPROVAL ( #217, 'UNSPECIFIED' ) ;
#71 = FACE_OUTER_BOUND ( 'NONE', #209, .T. ) ;
#72 = AXIS2_PLACEMENT_3D ( 'NONE', #46, #132, #271 ) ;
#73 = CC_DESIGN_APPROVAL ( #70, ( #112 ) ) ;
#74 = DIRECTION ( 'NONE',  ( 0.000000000000000000, 0.000000000000000000, -1.000000000000000000 ) ) ;
#75 = ORIENTED_EDGE ( 'NONE', *, *, #228, .F. ) ;
#76 = EDGE_LOOP ( 'NONE', ( #78 ) ) ;
#77 = ORGANIZATION ( 'UNSPECIFIED', 'UNSPECIFIED', '' ) ;
#78 = ORIENTED_EDGE ( 'NONE', *, *, #205, .T. ) ;
#79 = EDGE_LOOP ( 'NONE', ( #264 ) ) ;
#80 = FACE_OUTER_BOUND ( 'NONE', #231, .T. ) ;
#81 = CYLINDRICAL_SURFACE ( 'NONE', #145, 0.06050000000000001210 ) ;
#82 = CARTESIAN_POINT ( 'NONE',  ( -0.06050000000000001210, 0.000000000000000000, -1.050000000000000044 ) ) ;
#83 = CIRCLE ( 'NONE', #124, 0.06900000000000000577 ) ;
#84 = DATE_TIME_ROLE ( 'creation_date' ) ;
#85 = DIRECTION ( 'NONE',  ( 1.000000000000000000, 0.000000000000000000, 0.000000000000000000 ) ) ;
#86 = EDGE_CURVE ( 'NONE', #142, #142, #83, .T. ) ;
#87 = CARTESIAN_POINT ( 'NONE',  ( 0.000000000000000000, 0.000000000000000000, -1.369999999999999885 ) ) ;
#88 = VERTEX_POINT ( 'NONE', #133 ) ;
#89 = AXIS2_PLACEMENT_3D ( 'NONE', #126, #213, #85 ) ;
#90 = FACE_OUTER_BOUND ( 'NONE', #79, .T. ) ;
#91 = FACE_OUTER_BOUND ( 'NONE', #144, .T. ) ;
#92 = FACE_OUTER_BOUND ( 'NONE', #186, .T. ) ;
#93 = CARTESIAN_POINT ( 'NONE',  ( 0.000000000000000000, 0.000000000000000000, -0.5999999999999999778 ) ) ;
#94 = ADVANCED_FACE ( 'NONE', ( #274, #92 ), #179, .T. ) ;
#95 = DIRECTION ( 'NONE',  ( 0.000000000000000000, 0.000000000000000000, -1.000000000000000000 ) ) ;
#96 = DIRECTION ( 'NONE',  ( 0.000000000000000000, 0.000000000000000000, -1.000000000000000000 ) ) ;
#97 = CIRCLE ( 'NONE', #182, 0.06900000000000000577 ) ;
#98 = APPROVAL_PERSON_ORGANIZATION ( #60, #270, #130 ) ;
#99 = ORIENTED_EDGE ( 'NONE', *, *, #228, .T. ) ;
#100 = ADVANCED_FACE ( 'NONE', ( #90 ), #24, .T. ) ;
#101 = EDGE_LOOP ( 'NONE', ( #102 ) ) ;
#102 = ORIENTED_EDGE ( 'NONE', *, *, #86, .F. ) ;
#103 = ORIENTED_EDGE ( 'NONE', *, *, #268, .F. ) ;
#104 = EDGE_CURVE ( 'NONE', #148, #148, #278, .T. ) ;
#105 = AXIS2_PLACEMENT_3D ( 'NONE', #121, #184, #6 ) ;
#106 = PERSON_AND_ORGANIZATION_ROLE ( 'design_owner' ) ;
#107 = APPROVAL_DATE_TIME ( #146, #270 ) ;
#108 = CARTESIAN_POINT ( 'NONE',  ( -0.05650000000000000161, 0.000000000000000000, -1.050000000000000044 ) ) ;
#109 = DATE_AND_TIME ( #111, #3 ) ;
#110 = AXIS2_PLACEMENT_3D ( 'NONE', #224, #27, #203 ) ;
#111 = CALENDAR_DATE ( 2022, 29, 9 ) ;
#112 = SECURITY_CLASSIFICATION ( '', '', #128 ) ;
#113 = CYLINDRICAL_SURFACE ( 'NONE', #262, 0.01850000000000000255 ) ;
#114 = DIRECTION ( 'NONE',  ( 1.000000000000000000, 0.000000000000000000, -0.000000000000000000 ) ) ;
#115 = VERTEX_POINT ( 'NONE', #82 ) ;
#116 = LOCAL_TIME ( 8, 34, 10.00000000000000000, #195 ) ;
#117 = DIRECTION ( 'NONE',  ( 0.000000000000000000, 0.000000000000000000, 1.000000000000000000 ) ) ;
#118 = CARTESIAN_POINT ( 'NONE',  ( 0.000000000000000000, 0.000000000000000000, -1.219999999999999973 ) ) ;
#119 = DIRECTION ( 'NONE',  ( -1.000000000000000000, 0.000000000000000000, 0.000000000000000000 ) ) ;
#120 = DIRECTION ( 'NONE',  ( -1.000000000000000000, 0.000000000000000000, 0.000000000000000000 ) ) ;
#121 = CARTESIAN_POINT ( 'NONE',  ( 0.000000000000000000, 0.000000000000000000, -1.369999999999999885 ) ) ;
#122 = EDGE_LOOP ( 'NONE', ( #210 ) ) ;
#123 = PLANE ( 'NONE',  #232 ) ;
#124 = AXIS2_PLACEMENT_3D ( 'NONE', #1, #65, #175 ) ;
#125 = EDGE_LOOP ( 'NONE', ( #254 ) ) ;
#126 = CARTESIAN_POINT ( 'NONE',  ( 0.000000000000000000, 0.000000000000000000, 0.000000000000000000 ) ) ;
#127 = APPROVAL_PERSON_ORGANIZATION ( #63, #272, #193 ) ;
#128 = SECURITY_CLASSIFICATION_LEVEL ( 'unclassified' ) ;
#129 = DATE_AND_TIME ( #174, #116 ) ;
#130 = APPROVAL_ROLE ( '' ) ;
#131 = CC_DESIGN_PERSON_AND_ORGANIZATION_ASSIGNMENT ( #15, #106, ( #199 ) ) ;
#132 = DIRECTION ( 'NONE',  ( 0.000000000000000000, 0.000000000000000000, -1.000000000000000000 ) ) ;
#133 = CARTESIAN_POINT ( 'NONE',  ( -0.01850000000000000255, 0.000000000000000000, -1.219999999999999973 ) ) ;
#134 = DIRECTION ( 'NONE',  ( 0.000000000000000000, 0.000000000000000000, 1.000000000000000000 ) ) ;
#135 = DIRECTION ( 'NONE',  ( 0.000000000000000000, 0.000000000000000000, -1.000000000000000000 ) ) ;
#136 = FACE_OUTER_BOUND ( 'NONE', #255, .T. ) ;
#137 = CARTESIAN_POINT ( 'NONE',  ( 0.000000000000000000, 0.000000000000000000, -0.8499999999999999778 ) ) ;
#138 = ADVANCED_FACE ( 'NONE', ( #66, #91 ), #113, .T. ) ;
#139 = DIRECTION ( 'NONE',  ( -1.000000000000000000, 0.000000000000000000, 0.000000000000000000 ) ) ;
#140 = CC_DESIGN_PERSON_AND_ORGANIZATION_ASSIGNMENT ( #38, #147, ( #220 ) ) ;
#141 = CIRCLE ( 'NONE', #14, 0.05650000000000000161 ) ;
#142 = VERTEX_POINT ( 'NONE', #17 ) ;
#143 = EDGE_LOOP ( 'NONE', ( #103 ) ) ;
#144 = EDGE_LOOP ( 'NONE', ( #285 ) ) ;
#145 = AXIS2_PLACEMENT_3D ( 'NONE', #167, #59, #163 ) ;
#146 = DATE_AND_TIME ( #266, #244 ) ;
#147 = PERSON_AND_ORGANIZATION_ROLE ( 'design_supplier' ) ;
#148 = VERTEX_POINT ( 'NONE', #290 ) ;
#149 = PERSON_AND_ORGANIZATION_ROLE ( 'classification_officer' ) ;
#150 = AXIS2_PLACEMENT_3D ( 'NONE', #158, #74, #53 ) ;
#151 = DIRECTION ( 'NONE',  ( -0.000000000000000000, -0.000000000000000000, 1.000000000000000000 ) ) ;
#152 = FACE_OUTER_BOUND ( 'NONE', #122, .T. ) ;
#153 = PRODUCT_RELATED_PRODUCT_CATEGORY ( 'detail', '', ( #199 ) ) ;
#154 =( CONVERSION_BASED_UNIT ( 'INCH', #273 ) LENGTH_UNIT ( ) NAMED_UNIT ( #5 ) );
#155 = PLANE ( 'NONE',  #50 ) ;
#156 = AXIS2_PLACEMENT_3D ( 'NONE', #45, #298, #68 ) ;
#157 = CARTESIAN_POINT ( 'NONE',  ( 0.000000000000000000, 0.000000000000000000, -0.8499999999999999778 ) ) ;
#158 = CARTESIAN_POINT ( 'NONE',  ( 0.000000000000000000, 0.000000000000000000, -0.8499999999999999778 ) ) ;
#159 = EDGE_LOOP ( 'NONE', ( #55 ) ) ;
#160 = CC_DESIGN_PERSON_AND_ORGANIZATION_ASSIGNMENT ( #191, #236, ( #31 ) ) ;
#161 = CIRCLE ( 'NONE', #30, 0.01850000000000000255 ) ;
#162 = EDGE_LOOP ( 'NONE', ( #185 ) ) ;
#163 = DIRECTION ( 'NONE',  ( 1.000000000000000000, 0.000000000000000000, 0.000000000000000000 ) ) ;
#164 = CALENDAR_DATE ( 2022, 29, 9 ) ;
#165 = EDGE_LOOP ( 'NONE', ( #34 ) ) ;
#166 = AXIS2_PLACEMENT_3D ( 'NONE', #221, #151, #242 ) ;
#167 = CARTESIAN_POINT ( 'NONE',  ( 0.000000000000000000, 0.000000000000000000, -1.050000000000000044 ) ) ;
#168 = UNCERTAINTY_MEASURE_WITH_UNIT (LENGTH_MEASURE( 1.000000000000000082E-05 ), #154, 'distance_accuracy_value', 'NONE');
#169 = CC_DESIGN_APPROVAL ( #270, ( #220 ) ) ;
#170 = APPROVAL_DATE_TIME ( #109, #272 ) ;
#171 = VERTEX_POINT ( 'NONE', #238 ) ;
#172 = VERTEX_POINT ( 'NONE', #62 ) ;
#173 = PERSON_AND_ORGANIZATION ( #201, #77 ) ;
#174 = CALENDAR_DATE ( 2022, 29, 9 ) ;
#175 = DIRECTION ( 'NONE',  ( -1.000000000000000000, 0.000000000000000000, 0.000000000000000000 ) ) ;
#176 = AXIS2_PLACEMENT_3D ( 'NONE', #137, #227, #8 ) ;
#177 = CARTESIAN_POINT ( 'NONE',  ( 0.000000000000000000, 0.000000000000000000, 0.000000000000000000 ) ) ;
#178 = DIRECTION ( 'NONE',  ( 1.000000000000000000, 0.000000000000000000, 0.000000000000000000 ) ) ;
#179 = CYLINDRICAL_SURFACE ( 'NONE', #166, 0.05650000000000000161 ) ;
#180 = ADVANCED_FACE ( 'NONE', ( #200, #243 ), #155, .T. ) ;
#181 = DIRECTION ( 'NONE',  ( 0.000000000000000000, 0.000000000000000000, 1.000000000000000000 ) ) ;
#182 = AXIS2_PLACEMENT_3D ( 'NONE', #93, #96, #119 ) ;
#183 = CARTESIAN_POINT ( 'NONE',  ( 0.000000000000000000, 0.000000000000000000, -0.5999999999999999778 ) ) ;
#184 = DIRECTION ( 'NONE',  ( 0.000000000000000000, 0.000000000000000000, -1.000000000000000000 ) ) ;
#185 = ORIENTED_EDGE ( 'NONE', *, *, #292, .T. ) ;
#186 = EDGE_LOOP ( 'NONE', ( #37 ) ) ;
#187 = DESIGN_CONTEXT ( 'detailed design', #56, 'design' ) ;
#188 = ORIENTED_EDGE ( 'NONE', *, *, #218, .T. ) ;
#189 = COORDINATED_UNIVERSAL_TIME_OFFSET ( 8, 0, .BEHIND. ) ;
#190 = AXIS2_PLACEMENT_3D ( 'NONE', #183, #181, #277 ) ;
#191 = PERSON_AND_ORGANIZATION ( #201, #77 ) ;
#192 = FACE_OUTER_BOUND ( 'NONE', #165, .T. ) ;
#193 = APPROVAL_ROLE ( '' ) ;
#194 = VERTEX_POINT ( 'NONE', #240 ) ;
#195 = COORDINATED_UNIVERSAL_TIME_OFFSET ( 8, 0, .BEHIND. ) ;
#196 = CIRCLE ( 'NONE', #58, 0.06050000000000001210 ) ;
#197 = COORDINATED_UNIVERSAL_TIME_OFFSET ( 8, 0, .BEHIND. ) ;
#198 = LOCAL_TIME ( 8, 34, 10.00000000000000000, #189 ) ;
#199 = PRODUCT ( 'TFT-5G-402_3D', 'TFT-5G-402_3D', '', ( #269 ) ) ;
#200 = FACE_BOUND ( 'NONE', #54, .T. ) ;
#201 = PERSON ( 'UNSPECIFIED', 'UNSPECIFIED', 'UNSPECIFIED', ('UNSPECIFIED'), ('UNSPECIFIED'), ('UNSPECIFIED') ) ;
#202 = CIRCLE ( 'NONE', #150, 0.06050000000000001210 ) ;
#203 = DIRECTION ( 'NONE',  ( 1.000000000000000000, 0.000000000000000000, 0.000000000000000000 ) ) ;
#204 = PLANE ( 'NONE',  #64 ) ;
#205 = EDGE_CURVE ( 'NONE', #172, #172, #247, .T. ) ;
#206 = CARTESIAN_POINT ( 'NONE',  ( 0.000000000000000000, 0.000000000000000000, -1.369999999999999885 ) ) ;
#207 = PLANE ( 'NONE',  #105 ) ;
#208 = CLOSED_SHELL ( 'NONE', ( #211, #36, #100, #256, #233, #21, #43, #94, #180, #138, #263 ) ) ;
#209 = EDGE_LOOP ( 'NONE', ( #188 ) ) ;
#210 = ORIENTED_EDGE ( 'NONE', *, *, #104, .F. ) ;
#211 = ADVANCED_FACE ( 'NONE', ( #246, #152 ), #48, .T. ) ;
#212 = CC_DESIGN_DATE_AND_TIME_ASSIGNMENT ( #129, #84, ( #31 ) ) ;
#213 = DIRECTION ( 'NONE',  ( 0.000000000000000000, 0.000000000000000000, 1.000000000000000000 ) ) ;
#214 = ORIENTED_EDGE ( 'NONE', *, *, #297, .F. ) ;
#215 =( GEOMETRIC_REPRESENTATION_CONTEXT ( 3 ) GLOBAL_UNCERTAINTY_ASSIGNED_CONTEXT ( ( #168 ) ) GLOBAL_UNIT_ASSIGNED_CONTEXT ( ( #154, #2, #47 ) ) REPRESENTATION_CONTEXT ( 'NONE', 'WORKASPACE' ) );
#216 = PERSON_AND_ORGANIZATION ( #201, #77 ) ;
#217 = APPROVAL_STATUS ( 'not_yet_approved' ) ;
#218 = EDGE_CURVE ( 'NONE', #194, #194, #97, .T. ) ;
#219 = VERTEX_POINT ( 'NONE', #241 ) ;
#220 = PRODUCT_DEFINITION_FORMATION_WITH_SPECIFIED_SOURCE ( 'ANY', '', #199, .NOT_KNOWN. ) ;
#221 = CARTESIAN_POINT ( 'NONE',  ( 0.000000000000000000, 0.000000000000000000, -1.219999999999999973 ) ) ;
#222 = DIRECTION ( 'NONE',  ( -0.000000000000000000, -0.000000000000000000, 1.000000000000000000 ) ) ;
#223 = FACE_OUTER_BOUND ( 'NONE', #282, .T. ) ;
#224 = CARTESIAN_POINT ( 'NONE',  ( 0.000000000000000000, 0.000000000000000000, -0.5999999999999999778 ) ) ;
#225 = DIRECTION ( 'NONE',  ( 0.000000000000000000, 0.000000000000000000, -1.000000000000000000 ) ) ;
#226 = CC_DESIGN_DATE_AND_TIME_ASSIGNMENT ( #42, #267, ( #112 ) ) ;
#227 = DIRECTION ( 'NONE',  ( -0.000000000000000000, -0.000000000000000000, 1.000000000000000000 ) ) ;
#228 = EDGE_CURVE ( 'NONE', #115, #115, #196, .T. ) ;
#229 = CC_DESIGN_APPROVAL ( #272, ( #31 ) ) ;
#230 = EDGE_LOOP ( 'NONE', ( #259 ) ) ;
#231 = EDGE_LOOP ( 'NONE', ( #75 ) ) ;
#232 = AXIS2_PLACEMENT_3D ( 'NONE', #12, #286, #245 ) ;
#233 = ADVANCED_FACE ( 'NONE', ( #49, #136 ), #204, .T. ) ;
#234 = ORIENTED_EDGE ( 'NONE', *, *, #86, .T. ) ;
#235 = CC_DESIGN_PERSON_AND_ORGANIZATION_ASSIGNMENT ( #173, #61, ( #220 ) ) ;
#236 = PERSON_AND_ORGANIZATION_ROLE ( 'creator' ) ;
#237 = AXIS2_PLACEMENT_3D ( 'NONE', #280, #252, #139 ) ;
#238 = CARTESIAN_POINT ( 'NONE',  ( 0.08000000000000000167, 0.000000000000000000, -0.5999999999999999778 ) ) ;
#239 = PERSON_AND_ORGANIZATION ( #201, #77 ) ;
#240 = CARTESIAN_POINT ( 'NONE',  ( -0.06900000000000000577, 0.000000000000000000, -0.5999999999999999778 ) ) ;
#241 = CARTESIAN_POINT ( 'NONE',  ( -0.01850000000000000255, 0.000000000000000000, -1.369999999999999885 ) ) ;
#242 = DIRECTION ( 'NONE',  ( 1.000000000000000000, 0.000000000000000000, 0.000000000000000000 ) ) ;
#243 = FACE_OUTER_BOUND ( 'NONE', #76, .T. ) ;
#244 = LOCAL_TIME ( 8, 34, 10.00000000000000000, #197 ) ;
#245 = DIRECTION ( 'NONE',  ( 1.000000000000000000, 0.000000000000000000, -0.000000000000000000 ) ) ;
#246 = FACE_OUTER_BOUND ( 'NONE', #159, .T. ) ;
#247 = CIRCLE ( 'NONE', #156, 0.05650000000000000161 ) ;
#248 = FACE_OUTER_BOUND ( 'NONE', #101, .T. ) ;
#249 = EDGE_CURVE ( 'NONE', #171, #171, #284, .T. ) ;
#250 = FACE_OUTER_BOUND ( 'NONE', #162, .T. ) ;
#251 = LOCAL_TIME ( 8, 34, 10.00000000000000000, #16 ) ;
#252 = DIRECTION ( 'NONE',  ( 0.000000000000000000, 0.000000000000000000, -1.000000000000000000 ) ) ;
#253 = APPLICATION_CONTEXT ( 'configuration controlled 3d designs of mechanical parts and assemblies' ) ;
#254 = ORIENTED_EDGE ( 'NONE', *, *, #249, .F. ) ;
#255 = EDGE_LOOP ( 'NONE', ( #234 ) ) ;
#256 = ADVANCED_FACE ( 'NONE', ( #248, #71 ), #52, .T. ) ;
#257 = FACE_BOUND ( 'NONE', #32, .T. ) ;
#258 = SHAPE_DEFINITION_REPRESENTATION ( #260, #33 ) ;
#259 = ORIENTED_EDGE ( 'NONE', *, *, #292, .F. ) ;
#260 = PRODUCT_DEFINITION_SHAPE ( 'NONE', 'NONE',  #31 ) ;
#261 = DATE_AND_TIME ( #164, #198 ) ;
#262 = AXIS2_PLACEMENT_3D ( 'NONE', #87, #222, #178 ) ;
#263 = ADVANCED_FACE ( 'NONE', ( #250 ), #207, .T. ) ;
#264 = ORIENTED_EDGE ( 'NONE', *, *, #104, .T. ) ;
#265 = CC_DESIGN_PERSON_AND_ORGANIZATION_ASSIGNMENT ( #239, #149, ( #112 ) ) ;
#266 = CALENDAR_DATE ( 2022, 29, 9 ) ;
#267 = DATE_TIME_ROLE ( 'classification_date' ) ;
#268 = EDGE_CURVE ( 'NONE', #40, #40, #141, .T. ) ;
#269 = MECHANICAL_CONTEXT ( 'NONE', #253, 'mechanical' ) ;
#270 = APPROVAL ( #291, 'UNSPECIFIED' ) ;
#271 = DIRECTION ( 'NONE',  ( -1.000000000000000000, 0.000000000000000000, -0.000000000000000000 ) ) ;
#272 = APPROVAL ( #289, 'UNSPECIFIED' ) ;
#273 = LENGTH_MEASURE_WITH_UNIT ( LENGTH_MEASURE( 0.02539999999999999897 ), #44 );
#274 = FACE_OUTER_BOUND ( 'NONE', #10, .T. ) ;
#275 = DIRECTION ( 'NONE',  ( -1.000000000000000000, 0.000000000000000000, -0.000000000000000000 ) ) ;
#276 = DIRECTION ( 'NONE',  ( 0.000000000000000000, 0.000000000000000000, -1.000000000000000000 ) ) ;
#277 = DIRECTION ( 'NONE',  ( 1.000000000000000000, 0.000000000000000000, 0.000000000000000000 ) ) ;
#278 = CIRCLE ( 'NONE', #20, 0.08000000000000000167 ) ;
#279 = DIRECTION ( 'NONE',  ( 0.000000000000000000, 0.000000000000000000, -1.000000000000000000 ) ) ;
#280 = CARTESIAN_POINT ( 'NONE',  ( 0.000000000000000000, 0.000000000000000000, -1.219999999999999973 ) ) ;
#281 = APPROVAL_PERSON_ORGANIZATION ( #216, #70, #19 ) ;
#282 = EDGE_LOOP ( 'NONE', ( #99 ) ) ;
#283 = ORIENTED_EDGE ( 'NONE', *, *, #288, .F. ) ;
#284 = CIRCLE ( 'NONE', #190, 0.08000000000000000167 ) ;
#285 = ORIENTED_EDGE ( 'NONE', *, *, #288, .T. ) ;
#286 = DIRECTION ( 'NONE',  ( 0.000000000000000000, 0.000000000000000000, 1.000000000000000000 ) ) ;
#287 = ORIENTED_EDGE ( 'NONE', *, *, #218, .F. ) ;
#288 = EDGE_CURVE ( 'NONE', #88, #88, #39, .T. ) ;
#289 = APPROVAL_STATUS ( 'not_yet_approved' ) ;
#290 = CARTESIAN_POINT ( 'NONE',  ( 0.08000000000000000167, 0.000000000000000000, 0.000000000000000000 ) ) ;
#291 = APPROVAL_STATUS ( 'not_yet_approved' ) ;
#292 = EDGE_CURVE ( 'NONE', #219, #219, #161, .T. ) ;
#293 = COORDINATED_UNIVERSAL_TIME_OFFSET ( 8, 0, .BEHIND. ) ;
#294 = AXIS2_PLACEMENT_3D ( 'NONE', #177, #134, #114 ) ;
#295 = APPLICATION_PROTOCOL_DEFINITION ( 'international standard', 'config_control_design', 1994, #56 ) ;
#296 = CARTESIAN_POINT ( 'NONE',  ( -0.06050000000000001210, 0.000000000000000000, -0.8499999999999999778 ) ) ;
#297 = EDGE_CURVE ( 'NONE', #22, #22, #202, .T. ) ;
#298 = DIRECTION ( 'NONE',  ( 0.000000000000000000, 0.000000000000000000, -1.000000000000000000 ) ) ;
ENDSEC;
END-ISO-10303-21;
