ISO-10303-21;
HEADER;
FILE_DESCRIPTION (( 'STEP AP214' ),
    '1' );
FILE_NAME ('ST-D-27MM-B20_3D.step',
    '2025-02-26T00:37:19',
    ( '' ),
    ( '' ),
    'SwSTEP 2.0',
    'SolidWorks 2022',
    '' );
FILE_SCHEMA (( 'AUTOMOTIVE_DESIGN' ));
ENDSEC;

DATA;
#1 =( NAMED_UNIT ( * ) SI_UNIT ( $, .STERADIAN. ) SOLID_ANGLE_UNIT ( ) );
#2 = DIRECTION ( 'NONE',  ( 1.000000000000000000, 0.000000000000000000, 0.000000000000000000 ) ) ;
#3 = LENGTH_MEASURE_WITH_UNIT ( LENGTH_MEASURE( 0.02539999999999999897 ), #113 );
#4 = CARTESIAN_POINT ( 'NONE',  ( 0.000000000000000000, 0.2500000000000000000, 0.000000000000000000 ) ) ;
#5 = CARTESIAN_POINT ( 'NONE',  ( 0.000000000000000000, -0.2500000000000000000, 0.000000000000000000 ) ) ;
#6 = ORIENTED_EDGE ( 'NONE', *, *, #44, .T. ) ;
#7 = AXIS2_PLACEMENT_3D ( 'NONE', #4, #164, #167 ) ;
#8 = PRODUCT_RELATED_PRODUCT_CATEGORY ( 'part', '', ( #119 ) ) ;
#9 = PRODUCT_DEFINITION_FORMATION_WITH_SPECIFIED_SOURCE ( 'ANY', '', #192, .NOT_KNOWN. ) ;
#10 = PRODUCT_DEFINITION_SHAPE ( 'NONE', 'NONE',  #57 ) ;
#11 = PRESENTATION_STYLE_ASSIGNMENT (( #187 ) ) ;
#12 = ORIENTED_EDGE ( 'NONE', *, *, #78, .T. ) ;
#13 = CARTESIAN_POINT ( 'NONE',  ( 0.000000000000000000, 0.2500000000000000000, 0.000000000000000000 ) ) ;
#14 = VERTEX_POINT ( 'NONE', #102 ) ;
#15 =( NAMED_UNIT ( * ) PLANE_ANGLE_UNIT ( ) SI_UNIT ( $, .RADIAN. ) );
#16 = CARTESIAN_POINT ( 'NONE',  ( 0.000000000000000000, 0.2500000000000000000, 0.000000000000000000 ) ) ;
#17 = CIRCLE ( 'NONE', #249, 0.3099999999999999978 ) ;
#18 = DIMENSIONAL_EXPONENTS ( 1.000000000000000000, 0.000000000000000000, 0.000000000000000000, 0.000000000000000000, 0.000000000000000000, 0.000000000000000000, 0.000000000000000000 ) ;
#19 = FILL_AREA_STYLE ('',( #118 ) ) ;
#20 = VERTEX_POINT ( 'NONE', #291 ) ;
#21 = CARTESIAN_POINT ( 'NONE',  ( 0.000000000000000000, 0.2500000000000000000, 0.000000000000000000 ) ) ;
#22 = SHAPE_REPRESENTATION ( 'ST-D-27MM-B20_3D', ( #87, #190 ), #96 ) ;
#23 = CARTESIAN_POINT ( 'NONE',  ( 0.000000000000000000, 0.000000000000000000, 0.000000000000000000 ) ) ;
#24 = AXIS2_PLACEMENT_3D ( 'NONE', #36, #129, #225 ) ;
#25 = AXIS2_PLACEMENT_3D ( 'NONE', #268, #161, #264 ) ;
#26 = STYLED_ITEM ( 'NONE', ( #156 ), #252 ) ;
#27 = DIRECTION ( 'NONE',  ( 0.000000000000000000, 0.000000000000000000, -1.000000000000000000 ) ) ;
#28 = VERTEX_POINT ( 'NONE', #147 ) ;
#29 = DIRECTION ( 'NONE',  ( 0.000000000000000000, 1.000000000000000000, 0.000000000000000000 ) ) ;
#30 = CYLINDRICAL_SURFACE ( 'NONE', #86, 0.3150000000000000022 ) ;
#31 = ORIENTED_EDGE ( 'NONE', *, *, #52, .T. ) ;
#32 =( LENGTH_UNIT ( ) NAMED_UNIT ( * ) SI_UNIT ( $, .METRE. ) );
#33 = FILL_AREA_STYLE ('',( #141 ) ) ;
#34 = ORIENTED_EDGE ( 'NONE', *, *, #218, .T. ) ;
#35 = CIRCLE ( 'NONE', #24, 0.3150000000000000022 ) ;
#36 = CARTESIAN_POINT ( 'NONE',  ( 0.000000000000000000, 0.2500000000000000000, 0.000000000000000000 ) ) ;
#37 =( NAMED_UNIT ( * ) SI_UNIT ( $, .STERADIAN. ) SOLID_ANGLE_UNIT ( ) );
#38 = PRODUCT_CONTEXT ( 'NONE', #134, 'mechanical' ) ;
#39 = PRESENTATION_LAYER_ASSIGNMENT (  '', '', ( #229 ) ) ;
#40 = DIRECTION ( 'NONE',  ( -0.000000000000000000, -1.000000000000000000, -0.000000000000000000 ) ) ;
#41 = UNCERTAINTY_MEASURE_WITH_UNIT (LENGTH_MEASURE( 1.000000000000000082E-05 ), #135, 'distance_accuracy_value', 'NONE');
#42 = MECHANICAL_DESIGN_GEOMETRIC_PRESENTATION_REPRESENTATION (  '', ( #26 ), #254 ) ;
#43 = STYLED_ITEM ( 'NONE', ( #186 ), #262 ) ;
#44 = EDGE_CURVE ( 'NONE', #68, #138, #197, .T. ) ;
#45 = CARTESIAN_POINT ( 'NONE',  ( 0.000000000000000000, -0.2500000000000000000, 0.000000000000000000 ) ) ;
#46 = DIRECTION ( 'NONE',  ( 0.000000000000000000, -0.000000000000000000, 1.000000000000000000 ) ) ;
#47 = LINE ( 'NONE', #77, #154 ) ;
#48 = VECTOR ( 'NONE', #125, 39.37007874015748143 ) ;
#49 = AXIS2_PLACEMENT_3D ( 'NONE', #261, #112, #2 ) ;
#50 = EDGE_LOOP ( 'NONE', ( #59, #247 ) ) ;
#51 = CARTESIAN_POINT ( 'NONE',  ( 4.110248732225201870E-17, -2.313174182866607612E-17, 3.989939534217979755 ) ) ;
#52 = EDGE_CURVE ( 'NONE', #145, #68, #183, .T. ) ;
#53 = EDGE_LOOP ( 'NONE', ( #220, #6, #144, #206 ) ) ;
#54 = FACE_BOUND ( 'NONE', #173, .T. ) ;
#55 = PRESENTATION_STYLE_ASSIGNMENT (( #175 ) ) ;
#56 = SURFACE_STYLE_FILL_AREA ( #61 ) ;
#57 = PRODUCT_DEFINITION ( 'UNKNOWN', '', #265, #246 ) ;
#58 =( NAMED_UNIT ( * ) PLANE_ANGLE_UNIT ( ) SI_UNIT ( $, .RADIAN. ) );
#59 = ORIENTED_EDGE ( 'NONE', *, *, #98, .F. ) ;
#60 = DIRECTION ( 'NONE',  ( 0.000000000000000000, 0.000000000000000000, 1.000000000000000000 ) ) ;
#61 = FILL_AREA_STYLE ('',( #82 ) ) ;
#62 = DIMENSIONAL_EXPONENTS ( 1.000000000000000000, 0.000000000000000000, 0.000000000000000000, 0.000000000000000000, 0.000000000000000000, 0.000000000000000000, 0.000000000000000000 ) ;
#63 = SHAPE_DEFINITION_REPRESENTATION ( #284, #232 ) ;
#64 =( GEOMETRIC_REPRESENTATION_CONTEXT ( 3 ) GLOBAL_UNCERTAINTY_ASSIGNED_CONTEXT ( ( #248 ) ) GLOBAL_UNIT_ASSIGNED_CONTEXT ( ( #196, #58, #99 ) ) REPRESENTATION_CONTEXT ( 'NONE', 'WORKASPACE' ) );
#65 =( NAMED_UNIT ( * ) PLANE_ANGLE_UNIT ( ) SI_UNIT ( $, .RADIAN. ) );
#66 = ORIENTED_EDGE ( 'NONE', *, *, #130, .F. ) ;
#67 = AXIS2_PLACEMENT_3D ( 'NONE', #5, #238, #212 ) ;
#68 = VERTEX_POINT ( 'NONE', #224 ) ;
#69 = DIRECTION ( 'NONE',  ( -0.000000000000000000, -1.000000000000000000, -0.000000000000000000 ) ) ;
#70 = APPLICATION_CONTEXT ( 'automotive_design' ) ;
#71 = CARTESIAN_POINT ( 'NONE',  ( 0.000000000000000000, -0.2500000000000000000, -0.3150000000000000022 ) ) ;
#72 = PRESENTATION_LAYER_ASSIGNMENT (  '', '', ( #178 ) ) ;
#73 = ORIENTED_EDGE ( 'NONE', *, *, #160, .T. ) ;
#74 = FILL_AREA_STYLE ('',( #259 ) ) ;
#75 = SURFACE_SIDE_STYLE ('',( #56 ) ) ;
#76 = ORIENTED_EDGE ( 'NONE', *, *, #200, .T. ) ;
#77 = CARTESIAN_POINT ( 'NONE',  ( 0.000000000000000000, 0.2500000000000000000, -0.3099999999999999978 ) ) ;
#78 = EDGE_CURVE ( 'NONE', #20, #28, #17, .T. ) ;
#79 = ORIENTED_EDGE ( 'NONE', *, *, #298, .T. ) ;
#80 = DIRECTION ( 'NONE',  ( 0.000000000000000000, 1.000000000000000000, 0.000000000000000000 ) ) ;
#81 = ORIENTED_EDGE ( 'NONE', *, *, #78, .F. ) ;
#82 = FILL_AREA_STYLE_COLOUR ( '', #283 ) ;
#83 = PRODUCT_DEFINITION ( 'UNKNOWN', '', #9, #128 ) ;
#84 = APPLICATION_CONTEXT ( 'automotive_design' ) ;
#85 = ITEM_DEFINED_TRANSFORMATION ( 'NONE', 'NONE', #190,  #49 ) ;
#86 = AXIS2_PLACEMENT_3D ( 'NONE', #21, #40, #250 ) ;
#87 = AXIS2_PLACEMENT_3D ( 'NONE', #23, #226, #253 ) ;
#88 =( CONVERSION_BASED_UNIT ( 'INCH', #152 ) LENGTH_UNIT ( ) NAMED_UNIT ( #18 ) );
#89 = CIRCLE ( 'NONE', #126, 0.3150000000000000022 ) ;
#90 = MANIFOLD_SOLID_BREP ( 'Cut-Extrude1', #159 ) ;
#91 = ORIENTED_EDGE ( 'NONE', *, *, #237, .T. ) ;
#92 = ADVANCED_FACE ( 'Face1', ( #293 ), #148, .T. ) ;
#93 = LINE ( 'NONE', #204, #216 ) ;
#94 = CARTESIAN_POINT ( 'NONE',  ( 0.000000000000000000, -0.2500000000000000000, 0.000000000000000000 ) ) ;
#95 = CARTESIAN_POINT ( 'NONE',  ( 3.796405077356794548E-17, 0.2500000000000000000, 0.3099999999999999978 ) ) ;
#96 =( GEOMETRIC_REPRESENTATION_CONTEXT ( 3 ) GLOBAL_UNCERTAINTY_ASSIGNED_CONTEXT ( ( #181 ) ) GLOBAL_UNIT_ASSIGNED_CONTEXT ( ( #88, #15, #37 ) ) REPRESENTATION_CONTEXT ( 'NONE', 'WORKASPACE' ) );
#97 = DIRECTION ( 'NONE',  ( 0.000000000000000000, -1.000000000000000000, 0.000000000000000000 ) ) ;
#98 = EDGE_CURVE ( 'NONE', #170, #138, #110, .T. ) ;
#99 =( NAMED_UNIT ( * ) SI_UNIT ( $, .STERADIAN. ) SOLID_ANGLE_UNIT ( ) );
#100 = CARTESIAN_POINT ( 'NONE',  ( 0.000000000000000000, 0.2500000000000000000, 0.000000000000000000 ) ) ;
#101 = VERTEX_POINT ( 'NONE', #95 ) ;
#102 = CARTESIAN_POINT ( 'NONE',  ( 0.000000000000000000, 0.2500000000000000000, -0.3099999999999999978 ) ) ;
#103 = CIRCLE ( 'NONE', #163, 0.3099999999999999978 ) ;
#104 = PRODUCT_CONTEXT ( 'NONE', #127, 'mechanical' ) ;
#105 = SURFACE_SIDE_STYLE ('',( #174 ) ) ;
#106 =( NAMED_UNIT ( * ) PLANE_ANGLE_UNIT ( ) SI_UNIT ( $, .RADIAN. ) );
#107 = COLOUR_RGB ( '',1.000000000000000000, 1.000000000000000000, 1.000000000000000000 ) ;
#108 =( NAMED_UNIT ( * ) SI_UNIT ( $, .STERADIAN. ) SOLID_ANGLE_UNIT ( ) );
#109 = FACE_BOUND ( 'NONE', #168, .T. ) ;
#110 = CIRCLE ( 'NONE', #273, 0.3150000000000000022 ) ;
#111 = SURFACE_SIDE_STYLE ('',( #133 ) ) ;
#112 = DIRECTION ( 'NONE',  ( 0.000000000000000000, 0.000000000000000000, 1.000000000000000000 ) ) ;
#113 =( LENGTH_UNIT ( ) NAMED_UNIT ( * ) SI_UNIT ( $, .METRE. ) );
#114 = DIRECTION ( 'NONE',  ( -0.000000000000000000, -1.000000000000000000, -0.000000000000000000 ) ) ;
#115 = FACE_OUTER_BOUND ( 'NONE', #53, .T. ) ;
#116 = CARTESIAN_POINT ( 'NONE',  ( 0.000000000000000000, 0.2500000000000000000, 0.000000000000000000 ) ) ;
#117 =( NAMED_UNIT ( * ) SI_UNIT ( $, .STERADIAN. ) SOLID_ANGLE_UNIT ( ) );
#118 = FILL_AREA_STYLE_COLOUR ( '', #107 ) ;
#119 = PRODUCT ( 'ST-D-27MM-B20_3D', 'ST-D-27MM-B20_3D', '', ( #104 ) ) ;
#120 = MECHANICAL_DESIGN_GEOMETRIC_PRESENTATION_REPRESENTATION (  '', ( #178 ), #64 ) ;
#121 = ORIENTED_EDGE ( 'NONE', *, *, #52, .F. ) ;
#122 = CARTESIAN_POINT ( 'NONE',  ( 0.000000000000000000, 0.2500000000000000000, -0.3150000000000000022 ) ) ;
#123 = ORIENTED_EDGE ( 'NONE', *, *, #298, .F. ) ;
#124 = APPLICATION_PROTOCOL_DEFINITION ( 'draft international standard', 'automotive_design', 1998, #84 ) ;
#125 = DIRECTION ( 'NONE',  ( -0.000000000000000000, -1.000000000000000000, -0.000000000000000000 ) ) ;
#126 = AXIS2_PLACEMENT_3D ( 'NONE', #131, #231, #60 ) ;
#127 = APPLICATION_CONTEXT ( 'automotive_design' ) ;
#128 = PRODUCT_DEFINITION_CONTEXT ( 'detailed design', #84, 'design' ) ;
#129 = DIRECTION ( 'NONE',  ( 0.000000000000000000, 1.000000000000000000, 0.000000000000000000 ) ) ;
#130 = EDGE_CURVE ( 'NONE', #14, #20, #47, .T. ) ;
#131 = CARTESIAN_POINT ( 'NONE',  ( 0.000000000000000000, -0.2500000000000000000, 0.000000000000000000 ) ) ;
#132 =( GEOMETRIC_REPRESENTATION_CONTEXT ( 3 ) GLOBAL_UNCERTAINTY_ASSIGNED_CONTEXT ( ( #171 ) ) GLOBAL_UNIT_ASSIGNED_CONTEXT ( ( #158, #235, #1 ) ) REPRESENTATION_CONTEXT ( 'NONE', 'WORKASPACE' ) );
#133 = SURFACE_STYLE_FILL_AREA ( #74 ) ;
#134 = APPLICATION_CONTEXT ( 'automotive_design' ) ;
#135 =( CONVERSION_BASED_UNIT ( 'INCH', #3 ) LENGTH_UNIT ( ) NAMED_UNIT ( #278 ) );
#136 = MECHANICAL_DESIGN_GEOMETRIC_PRESENTATION_REPRESENTATION (  '', ( #43 ), #230 ) ;
#137 = DIRECTION ( 'NONE',  ( 0.000000000000000000, -0.000000000000000000, 1.000000000000000000 ) ) ;
#138 = VERTEX_POINT ( 'NONE', #194 ) ;
#139 = DIRECTION ( 'NONE',  ( 0.8342716023148966098, 0.5513536918992518743, 0.000000000000000000 ) ) ;
#140 = CARTESIAN_POINT ( 'NONE',  ( 0.000000000000000000, 0.2500000000000000000, -0.3150000000000000022 ) ) ;
#141 = FILL_AREA_STYLE_COLOUR ( '', #279 ) ;
#142 = PRODUCT_DEFINITION_SHAPE ( 'NONE', 'NONE',  #299 ) ;
#143 = CARTESIAN_POINT ( 'NONE',  ( 0.000000000000000000, 0.2500000000000000000, 0.000000000000000000 ) ) ;
#144 = ORIENTED_EDGE ( 'NONE', *, *, #260, .T. ) ;
#145 = VERTEX_POINT ( 'NONE', #122 ) ;
#146 = CYLINDRICAL_SURFACE ( 'NONE', #7, 0.3099999999999999978 ) ;
#147 = CARTESIAN_POINT ( 'NONE',  ( 3.796405077356794548E-17, -0.2500000000000000000, 0.3099999999999999978 ) ) ;
#148 = CYLINDRICAL_SURFACE ( 'NONE', #215, 0.3150000000000000022 ) ;
#149 = APPLICATION_PROTOCOL_DEFINITION ( 'draft international standard', 'automotive_design', 1998, #127 ) ;
#150 =( CONVERSION_BASED_UNIT ( 'INCH', #157 ) LENGTH_UNIT ( ) NAMED_UNIT ( #214 ) );
#151 = PRESENTATION_LAYER_ASSIGNMENT (  '', '', ( #26 ) ) ;
#152 = LENGTH_MEASURE_WITH_UNIT ( LENGTH_MEASURE( 0.02539999999999999897 ), #211 );
#153 = APPLICATION_PROTOCOL_DEFINITION ( 'draft international standard', 'automotive_design', 1998, #134 ) ;
#154 = VECTOR ( 'NONE', #69, 39.37007874015748143 ) ;
#155 = PRESENTATION_LAYER_ASSIGNMENT (  '', '', ( #43 ) ) ;
#156 = PRESENTATION_STYLE_ASSIGNMENT (( #255 ) ) ;
#157 = LENGTH_MEASURE_WITH_UNIT ( LENGTH_MEASURE( 0.02539999999999999897 ), #177 );
#158 =( CONVERSION_BASED_UNIT ( 'INCH', #281 ) LENGTH_UNIT ( ) NAMED_UNIT ( #179 ) );
#159 = CLOSED_SHELL ( 'NONE', ( #182, #252, #92, #251, #296, #243 ) ) ;
#160 = EDGE_CURVE ( 'NONE', #101, #14, #297, .T. ) ;
#161 = DIRECTION ( 'NONE',  ( 0.000000000000000000, 0.000000000000000000, 1.000000000000000000 ) ) ;
#162 = FACE_OUTER_BOUND ( 'NONE', #280, .T. ) ;
#163 = AXIS2_PLACEMENT_3D ( 'NONE', #16, #269, #191 ) ;
#164 = DIRECTION ( 'NONE',  ( -0.000000000000000000, -1.000000000000000000, -0.000000000000000000 ) ) ;
#165 = EDGE_LOOP ( 'NONE', ( #217, #79, #34, #66 ) ) ;
#166 = SHAPE_REPRESENTATION_RELATIONSHIP ( 'NONE' , 'NONE' ,  #232, #262 ) ;
#167 = DIRECTION ( 'NONE',  ( 0.000000000000000000, 0.000000000000000000, -1.000000000000000000 ) ) ;
#168 = EDGE_LOOP ( 'NONE', ( #81, #234 ) ) ;
#169 = DIRECTION ( 'NONE',  ( 0.000000000000000000, 0.000000000000000000, -1.000000000000000000 ) ) ;
#170 = VERTEX_POINT ( 'NONE', #71 ) ;
#171 = UNCERTAINTY_MEASURE_WITH_UNIT (LENGTH_MEASURE( 1.000000000000000082E-05 ), #158, 'distance_accuracy_value', 'NONE');
#172 = LINE ( 'NONE', #140, #202 ) ;
#173 = EDGE_LOOP ( 'NONE', ( #91, #73 ) ) ;
#174 = SURFACE_STYLE_FILL_AREA ( #19 ) ;
#175 = SURFACE_STYLE_USAGE ( .BOTH. , #289 ) ;
#176 = SHAPE_DEFINITION_REPRESENTATION ( #10, #22 ) ;
#177 =( LENGTH_UNIT ( ) NAMED_UNIT ( * ) SI_UNIT ( $, .METRE. ) );
#178 = STYLED_ITEM ( 'NONE', ( #11 ), #92 ) ;
#179 = DIMENSIONAL_EXPONENTS ( 1.000000000000000000, 0.000000000000000000, 0.000000000000000000, 0.000000000000000000, 0.000000000000000000, 0.000000000000000000, 0.000000000000000000 ) ;
#180 = COLOUR_RGB ( '',1.000000000000000000, 1.000000000000000000, 1.000000000000000000 ) ;
#181 = UNCERTAINTY_MEASURE_WITH_UNIT (LENGTH_MEASURE( 1.000000000000000082E-05 ), #88, 'distance_accuracy_value', 'NONE');
#182 = ADVANCED_FACE ( 'NONE', ( #221 ), #146, .F. ) ;
#183 = CIRCLE ( 'NONE', #199, 0.3150000000000000022 ) ;
#184 =( NAMED_UNIT ( * ) PLANE_ANGLE_UNIT ( ) SI_UNIT ( $, .RADIAN. ) );
#185 = CYLINDRICAL_SURFACE ( 'NONE', #244, 0.3099999999999999978 ) ;
#186 = PRESENTATION_STYLE_ASSIGNMENT (( #205 ) ) ;
#187 = SURFACE_STYLE_USAGE ( .BOTH. , #75 ) ;
#188 = PLANE ( 'NONE',  #189 ) ;
#189 = AXIS2_PLACEMENT_3D ( 'NONE', #45, #233, #46 ) ;
#190 = AXIS2_PLACEMENT_3D ( 'NONE', #51, #139, #239 ) ;
#191 = DIRECTION ( 'NONE',  ( 0.000000000000000000, 0.000000000000000000, -1.000000000000000000 ) ) ;
#192 = PRODUCT ( '1AW01-003_.63', '1AW01-003_.63', '', ( #38 ) ) ;
#193 = ORIENTED_EDGE ( 'NONE', *, *, #98, .T. ) ;
#194 = CARTESIAN_POINT ( 'NONE',  ( 3.857637417314162689E-17, -0.2500000000000000000, 0.3150000000000000022 ) ) ;
#195 = DIRECTION ( 'NONE',  ( 0.000000000000000000, 0.000000000000000000, 1.000000000000000000 ) ) ;
#196 =( CONVERSION_BASED_UNIT ( 'INCH', #285 ) LENGTH_UNIT ( ) NAMED_UNIT ( #62 ) );
#197 = LINE ( 'NONE', #245, #48 ) ;
#198 = ORIENTED_EDGE ( 'NONE', *, *, #44, .F. ) ;
#199 = AXIS2_PLACEMENT_3D ( 'NONE', #100, #29, #195 ) ;
#200 = EDGE_CURVE ( 'NONE', #145, #170, #172, .T. ) ;
#201 = FACE_OUTER_BOUND ( 'NONE', #50, .T. ) ;
#202 = VECTOR ( 'NONE', #240, 39.37007874015748143 ) ;
#203 = UNCERTAINTY_MEASURE_WITH_UNIT (LENGTH_MEASURE( 1.000000000000000082E-05 ), #276, 'distance_accuracy_value', 'NONE');
#204 = CARTESIAN_POINT ( 'NONE',  ( 3.796405077356794548E-17, 0.2500000000000000000, 0.3099999999999999978 ) ) ;
#205 = SURFACE_STYLE_USAGE ( .BOTH. , #111 ) ;
#206 = ORIENTED_EDGE ( 'NONE', *, *, #200, .F. ) ;
#207 = CIRCLE ( 'NONE', #67, 0.3099999999999999978 ) ;
#208 =( LENGTH_UNIT ( ) NAMED_UNIT ( * ) SI_UNIT ( $, .METRE. ) );
#209 = DIRECTION ( 'NONE',  ( 0.000000000000000000, -1.000000000000000000, 0.000000000000000000 ) ) ;
#210 = PRODUCT_RELATED_PRODUCT_CATEGORY ( 'part', '', ( #192 ) ) ;
#211 =( LENGTH_UNIT ( ) NAMED_UNIT ( * ) SI_UNIT ( $, .METRE. ) );
#212 = DIRECTION ( 'NONE',  ( 0.000000000000000000, 0.000000000000000000, -1.000000000000000000 ) ) ;
#213 =( LENGTH_UNIT ( ) NAMED_UNIT ( * ) SI_UNIT ( $, .METRE. ) );
#214 = DIMENSIONAL_EXPONENTS ( 1.000000000000000000, 0.000000000000000000, 0.000000000000000000, 0.000000000000000000, 0.000000000000000000, 0.000000000000000000, 0.000000000000000000 ) ;
#215 = AXIS2_PLACEMENT_3D ( 'NONE', #143, #266, #288 ) ;
#216 = VECTOR ( 'NONE', #114, 39.37007874015748143 ) ;
#217 = ORIENTED_EDGE ( 'NONE', *, *, #160, .F. ) ;
#218 = EDGE_CURVE ( 'NONE', #28, #20, #207, .T. ) ;
#219 = DIRECTION ( 'NONE',  ( -0.000000000000000000, -1.000000000000000000, -0.000000000000000000 ) ) ;
#220 = ORIENTED_EDGE ( 'NONE', *, *, #277, .F. ) ;
#221 = FACE_OUTER_BOUND ( 'NONE', #165, .T. ) ;
#222 = SURFACE_STYLE_FILL_AREA ( #33 ) ;
#223 = AXIS2_PLACEMENT_3D ( 'NONE', #13, #263, #137 ) ;
#224 = CARTESIAN_POINT ( 'NONE',  ( 3.857637417314162689E-17, 0.2500000000000000000, 0.3150000000000000022 ) ) ;
#225 = DIRECTION ( 'NONE',  ( 0.000000000000000000, 0.000000000000000000, 1.000000000000000000 ) ) ;
#226 = DIRECTION ( 'NONE',  ( 0.000000000000000000, 0.000000000000000000, 1.000000000000000000 ) ) ;
#227 =( REPRESENTATION_RELATIONSHIP ('NONE','NONE', #22, #232 ) REPRESENTATION_RELATIONSHIP_WITH_TRANSFORMATION ( #85 )SHAPE_REPRESENTATION_RELATIONSHIP( ) );
#228 = UNCERTAINTY_MEASURE_WITH_UNIT (LENGTH_MEASURE( 1.000000000000000082E-05 ), #150, 'distance_accuracy_value', 'NONE');
#229 = STYLED_ITEM ( 'NONE', ( #55 ), #90 ) ;
#230 =( GEOMETRIC_REPRESENTATION_CONTEXT ( 3 ) GLOBAL_UNCERTAINTY_ASSIGNED_CONTEXT ( ( #41 ) ) GLOBAL_UNIT_ASSIGNED_CONTEXT ( ( #135, #184, #258 ) ) REPRESENTATION_CONTEXT ( 'NONE', 'WORKASPACE' ) );
#231 = DIRECTION ( 'NONE',  ( 0.000000000000000000, 1.000000000000000000, 0.000000000000000000 ) ) ;
#232 = SHAPE_REPRESENTATION ( '1AW01-003_.63', ( #49 ), #132 ) ;
#233 = DIRECTION ( 'NONE',  ( 0.000000000000000000, 1.000000000000000000, 0.000000000000000000 ) ) ;
#234 = ORIENTED_EDGE ( 'NONE', *, *, #218, .F. ) ;
#235 =( NAMED_UNIT ( * ) PLANE_ANGLE_UNIT ( ) SI_UNIT ( $, .RADIAN. ) );
#236 = AXIS2_PLACEMENT_3D ( 'NONE', #116, #209, #169 ) ;
#237 = EDGE_CURVE ( 'NONE', #14, #101, #103, .T. ) ;
#238 = DIRECTION ( 'NONE',  ( 0.000000000000000000, -1.000000000000000000, 0.000000000000000000 ) ) ;
#239 = DIRECTION ( 'NONE',  ( 0.5513536918992518743, -0.8342716023148966098, 0.000000000000000000 ) ) ;
#240 = DIRECTION ( 'NONE',  ( -0.000000000000000000, -1.000000000000000000, -0.000000000000000000 ) ) ;
#241 = PLANE ( 'NONE',  #223 ) ;
#242 = ORIENTED_EDGE ( 'NONE', *, *, #237, .F. ) ;
#243 = ADVANCED_FACE ( 'NONE', ( #271 ), #185, .F. ) ;
#244 = AXIS2_PLACEMENT_3D ( 'NONE', #282, #219, #27 ) ;
#245 = CARTESIAN_POINT ( 'NONE',  ( 3.857637417314162689E-17, 0.2500000000000000000, 0.3150000000000000022 ) ) ;
#246 = PRODUCT_DEFINITION_CONTEXT ( 'detailed design', #70, 'design' ) ;
#247 = ORIENTED_EDGE ( 'NONE', *, *, #260, .F. ) ;
#248 = UNCERTAINTY_MEASURE_WITH_UNIT (LENGTH_MEASURE( 1.000000000000000082E-05 ), #196, 'distance_accuracy_value', 'NONE');
#249 = AXIS2_PLACEMENT_3D ( 'NONE', #270, #97, #272 ) ;
#250 = DIRECTION ( 'NONE',  ( 0.000000000000000000, 0.000000000000000000, -1.000000000000000000 ) ) ;
#251 = ADVANCED_FACE ( 'Face4', ( #54, #162 ), #241, .T. ) ;
#252 = ADVANCED_FACE ( 'Face1', ( #115 ), #30, .T. ) ;
#253 = DIRECTION ( 'NONE',  ( 1.000000000000000000, 0.000000000000000000, 0.000000000000000000 ) ) ;
#254 =( GEOMETRIC_REPRESENTATION_CONTEXT ( 3 ) GLOBAL_UNCERTAINTY_ASSIGNED_CONTEXT ( ( #228 ) ) GLOBAL_UNIT_ASSIGNED_CONTEXT ( ( #150, #65, #108 ) ) REPRESENTATION_CONTEXT ( 'NONE', 'WORKASPACE' ) );
#255 = SURFACE_STYLE_USAGE ( .BOTH. , #105 ) ;
#256 = MECHANICAL_DESIGN_GEOMETRIC_PRESENTATION_REPRESENTATION (  '', ( #229 ), #290 ) ;
#257 = ORIENTED_EDGE ( 'NONE', *, *, #277, .T. ) ;
#258 =( NAMED_UNIT ( * ) SI_UNIT ( $, .STERADIAN. ) SOLID_ANGLE_UNIT ( ) );
#259 = FILL_AREA_STYLE_COLOUR ( '', #180 ) ;
#260 = EDGE_CURVE ( 'NONE', #138, #170, #89, .T. ) ;
#261 = CARTESIAN_POINT ( 'NONE',  ( 0.000000000000000000, 0.000000000000000000, 0.000000000000000000 ) ) ;
#262 = ADVANCED_BREP_SHAPE_REPRESENTATION ( '', ( #90, #49 ), #132 ) ;
#263 = DIRECTION ( 'NONE',  ( 0.000000000000000000, 1.000000000000000000, 0.000000000000000000 ) ) ;
#264 = DIRECTION ( 'NONE',  ( 1.000000000000000000, 0.000000000000000000, 0.000000000000000000 ) ) ;
#265 = PRODUCT_DEFINITION_FORMATION_WITH_SPECIFIED_SOURCE ( 'ANY', '', #119, .NOT_KNOWN. ) ;
#266 = DIRECTION ( 'NONE',  ( -0.000000000000000000, -1.000000000000000000, -0.000000000000000000 ) ) ;
#267 = EDGE_LOOP ( 'NONE', ( #123, #242, #286, #12 ) ) ;
#268 = CARTESIAN_POINT ( 'NONE',  ( 0.000000000000000000, 0.000000000000000000, 0.000000000000000000 ) ) ;
#269 = DIRECTION ( 'NONE',  ( 0.000000000000000000, -1.000000000000000000, 0.000000000000000000 ) ) ;
#270 = CARTESIAN_POINT ( 'NONE',  ( 0.000000000000000000, -0.2500000000000000000, 0.000000000000000000 ) ) ;
#271 = FACE_OUTER_BOUND ( 'NONE', #267, .T. ) ;
#272 = DIRECTION ( 'NONE',  ( 0.000000000000000000, 0.000000000000000000, -1.000000000000000000 ) ) ;
#273 = AXIS2_PLACEMENT_3D ( 'NONE', #94, #80, #274 ) ;
#274 = DIRECTION ( 'NONE',  ( 0.000000000000000000, 0.000000000000000000, 1.000000000000000000 ) ) ;
#275 = LENGTH_MEASURE_WITH_UNIT ( LENGTH_MEASURE( 0.02539999999999999897 ), #213 );
#276 =( CONVERSION_BASED_UNIT ( 'INCH', #275 ) LENGTH_UNIT ( ) NAMED_UNIT ( #292 ) );
#277 = EDGE_CURVE ( 'NONE', #68, #145, #35, .T. ) ;
#278 = DIMENSIONAL_EXPONENTS ( 1.000000000000000000, 0.000000000000000000, 0.000000000000000000, 0.000000000000000000, 0.000000000000000000, 0.000000000000000000, 0.000000000000000000 ) ;
#279 = COLOUR_RGB ( '',1.000000000000000000, 1.000000000000000000, 1.000000000000000000 ) ;
#280 = EDGE_LOOP ( 'NONE', ( #31, #257 ) ) ;
#281 = LENGTH_MEASURE_WITH_UNIT ( LENGTH_MEASURE( 0.02539999999999999897 ), #208 );
#282 = CARTESIAN_POINT ( 'NONE',  ( 0.000000000000000000, 0.2500000000000000000, 0.000000000000000000 ) ) ;
#283 = COLOUR_RGB ( '',1.000000000000000000, 1.000000000000000000, 1.000000000000000000 ) ;
#284 = PRODUCT_DEFINITION_SHAPE ( 'NONE', 'NONE',  #83 ) ;
#285 = LENGTH_MEASURE_WITH_UNIT ( LENGTH_MEASURE( 0.02539999999999999897 ), #32 );
#286 = ORIENTED_EDGE ( 'NONE', *, *, #130, .T. ) ;
#287 = EDGE_LOOP ( 'NONE', ( #198, #121, #76, #193 ) ) ;
#288 = DIRECTION ( 'NONE',  ( 0.000000000000000000, 0.000000000000000000, -1.000000000000000000 ) ) ;
#289 = SURFACE_SIDE_STYLE ('',( #222 ) ) ;
#290 =( GEOMETRIC_REPRESENTATION_CONTEXT ( 3 ) GLOBAL_UNCERTAINTY_ASSIGNED_CONTEXT ( ( #203 ) ) GLOBAL_UNIT_ASSIGNED_CONTEXT ( ( #276, #106, #117 ) ) REPRESENTATION_CONTEXT ( 'NONE', 'WORKASPACE' ) );
#291 = CARTESIAN_POINT ( 'NONE',  ( 0.000000000000000000, -0.2500000000000000000, -0.3099999999999999978 ) ) ;
#292 = DIMENSIONAL_EXPONENTS ( 1.000000000000000000, 0.000000000000000000, 0.000000000000000000, 0.000000000000000000, 0.000000000000000000, 0.000000000000000000, 0.000000000000000000 ) ;
#293 = FACE_OUTER_BOUND ( 'NONE', #287, .T. ) ;
#294 = APPLICATION_PROTOCOL_DEFINITION ( 'draft international standard', 'automotive_design', 1998, #70 ) ;
#295 = CONTEXT_DEPENDENT_SHAPE_REPRESENTATION ( #227, #142 ) ;
#296 = ADVANCED_FACE ( 'Face2', ( #109, #201 ), #188, .F. ) ;
#297 = CIRCLE ( 'NONE', #236, 0.3099999999999999978 ) ;
#298 = EDGE_CURVE ( 'NONE', #101, #28, #93, .T. ) ;
#299 = NEXT_ASSEMBLY_USAGE_OCCURRENCE ( 'NAUO1', ' ', ' ', #57, #83, $ ) ;
ENDSEC;
END-ISO-10303-21;
