ISO-10303-21;
HEADER;
FILE_DESCRIPTION (( 'STEP AP203' ),
    '1' );
FILE_NAME ('SC5274_3D.step',
    '2022-08-30T17:37:19',
    ( '' ),
    ( '' ),
    'SwSTEP 2.0',
    'SolidWorks 2021',
    '' );
FILE_SCHEMA (( 'CONFIG_CONTROL_DESIGN' ));
ENDSEC;

DATA;
#1 = CARTESIAN_POINT ( 'NONE',  ( 0.2049999999999999878, 0.000000000000000000, 0.000000000000000000 ) ) ;
#2 = DATE_AND_TIME ( #114, #189 ) ;
#3 = DIRECTION ( 'NONE',  ( 1.000000000000000000, 0.000000000000000000, 0.000000000000000000 ) ) ;
#4 = EDGE_CURVE ( 'NONE', #302, #302, #69, .T. ) ;
#5 = CARTESIAN_POINT ( 'NONE',  ( 0.01166929376731389890, 0.000000000000000000, 0.000000000000000000 ) ) ;
#6 = PRODUCT_DEFINITION_FORMATION_WITH_SPECIFIED_SOURCE ( 'ANY', '', #266, .NOT_KNOWN. ) ;
#7 = DIRECTION ( 'NONE',  ( 0.000000000000000000, 0.000000000000000000, -1.000000000000000000 ) ) ;
#8 = APPROVAL ( #153, 'UNSPECIFIED' ) ;
#9 = CARTESIAN_POINT ( 'NONE',  ( 0.1400000000000000133, 0.000000000000000000, 0.000000000000000000 ) ) ;
#10 = CARTESIAN_POINT ( 'NONE',  ( 0.1100000000000000006, 0.000000000000000000, 0.000000000000000000 ) ) ;
#11 = CIRCLE ( 'NONE', #100, 0.007499999999999999722 ) ;
#12 = CARTESIAN_POINT ( 'NONE',  ( 0.02750000000000000014, 0.000000000000000000, -0.007499999999999999722 ) ) ;
#13 = CC_DESIGN_APPROVAL ( #307, ( #146 ) ) ;
#14 = CARTESIAN_POINT ( 'NONE',  ( -2.731847993664259829E-18, 0.07250000000000000888, 0.000000000000000000 ) ) ;
#15 = EDGE_CURVE ( 'NONE', #198, #198, #319, .T. ) ;
#16 = CARTESIAN_POINT ( 'NONE',  ( 0.2700000000000000178, 0.000000000000000000, 0.000000000000000000 ) ) ;
#17 = VERTEX_POINT ( 'NONE', #48 ) ;
#18 = DESIGN_CONTEXT ( 'detailed design', #279, 'design' ) ;
#19 = CARTESIAN_POINT ( 'NONE',  ( 0.000000000000000000, 0.000000000000000000, -0.06800000000000000488 ) ) ;
#20 = APPLICATION_PROTOCOL_DEFINITION ( 'international standard', 'config_control_design', 1994, #279 ) ;
#21 = CARTESIAN_POINT ( 'NONE',  ( 0.07000000000000000666, 0.007499999999999999722, 0.000000000000000000 ) ) ;
#22 = CIRCLE ( 'NONE', #26, 0.007499999999999999722 ) ;
#23 = APPLICATION_PROTOCOL_DEFINITION ( 'international standard', 'config_control_design', 1994, #199 ) ;
#24 = PERSON_AND_ORGANIZATION_ROLE ( 'creator' ) ;
#25 = EDGE_LOOP ( 'NONE', ( #62 ) ) ;
#26 = AXIS2_PLACEMENT_3D ( 'NONE', #9, #292, #209 ) ;
#27 = CARTESIAN_POINT ( 'NONE',  ( 0.02750000000000000014, 0.000000000000000000, 0.000000000000000000 ) ) ;
#28 = AXIS2_PLACEMENT_3D ( 'NONE', #325, #149, #40 ) ;
#29 = EDGE_LOOP ( 'NONE', ( #219 ) ) ;
#30 = EDGE_LOOP ( 'NONE', ( #217 ) ) ;
#31 = DIRECTION ( 'NONE',  ( 1.000000000000000000, 0.000000000000000000, 0.000000000000000000 ) ) ;
#32 = APPROVAL_STATUS ( 'not_yet_approved' ) ;
#33 = CARTESIAN_POINT ( 'NONE',  ( 0.01166929376731389890, 0.000000000000000000, 0.000000000000000000 ) ) ;
#34 = APPROVAL ( #126, 'UNSPECIFIED' ) ;
#35 = DIRECTION ( 'NONE',  ( 1.000000000000000000, 0.000000000000000000, 0.000000000000000000 ) ) ;
#36 = AXIS2_PLACEMENT_3D ( 'NONE', #301, #70, #95 ) ;
#37 = DIRECTION ( 'NONE',  ( 0.000000000000000000, 1.000000000000000000, 0.000000000000000000 ) ) ;
#38 = PLANE ( 'NONE',  #332 ) ;
#39 = CIRCLE ( 'NONE', #289, 0.07250000000000000888 ) ;
#40 = DIRECTION ( 'NONE',  ( 0.000000000000000000, -1.000000000000000000, 0.000000000000000000 ) ) ;
#41 = LOCAL_TIME ( 10, 37, 19.00000000000000000, #323 ) ;
#42 = ADVANCED_FACE ( 'NONE', ( #212, #263 ), #265, .T. ) ;
#43 = DIRECTION ( 'NONE',  ( 1.000000000000000000, 0.000000000000000000, 0.000000000000000000 ) ) ;
#44 = DIRECTION ( 'NONE',  ( 0.000000000000000000, 1.000000000000000000, 0.000000000000000000 ) ) ;
#45 = EDGE_CURVE ( 'NONE', #224, #224, #22, .T. ) ;
#46 = CALENDAR_DATE ( 2022, 30, 8 ) ;
#47 = PERSON_AND_ORGANIZATION ( #290, #223 ) ;
#48 = CARTESIAN_POINT ( 'NONE',  ( 0.08000000000000000167, 0.000000000000000000, -0.04900000000000000189 ) ) ;
#49 = EDGE_LOOP ( 'NONE', ( #157 ) ) ;
#50 = CARTESIAN_POINT ( 'NONE',  ( 0.08000000000000000167, 0.000000000000000000, -0.07250000000000000888 ) ) ;
#51 = ORIENTED_EDGE ( 'NONE', *, *, #54, .F. ) ;
#52 = AXIS2_PLACEMENT_3D ( 'NONE', #195, #298, #44 ) ;
#53 = FACE_BOUND ( 'NONE', #136, .T. ) ;
#54 = EDGE_CURVE ( 'NONE', #94, #94, #39, .T. ) ;
#55 = EDGE_LOOP ( 'NONE', ( #160 ) ) ;
#56 = AXIS2_PLACEMENT_3D ( 'NONE', #134, #57, #294 ) ;
#57 = DIRECTION ( 'NONE',  ( -1.000000000000000000, 0.000000000000000000, 0.000000000000000000 ) ) ;
#58 = CC_DESIGN_APPROVAL ( #8, ( #6 ) ) ;
#59 = CARTESIAN_POINT ( 'NONE',  ( 0.04000000000000000083, 0.000000000000000000, 0.000000000000000000 ) ) ;
#60 = EDGE_LOOP ( 'NONE', ( #257 ) ) ;
#61 = DIRECTION ( 'NONE',  ( 0.000000000000000000, 0.000000000000000000, -1.000000000000000000 ) ) ;
#62 = ORIENTED_EDGE ( 'NONE', *, *, #275, .F. ) ;
#63 = PERSON_AND_ORGANIZATION ( #290, #223 ) ;
#64 = DIRECTION ( 'NONE',  ( 1.000000000000000000, 0.000000000000000000, 0.000000000000000000 ) ) ;
#65 = CYLINDRICAL_SURFACE ( 'NONE', #135, 0.06250000000000000000 ) ;
#66 = FACE_OUTER_BOUND ( 'NONE', #316, .T. ) ;
#67 = AXIS2_PLACEMENT_3D ( 'NONE', #173, #196, #197 ) ;
#68 = CARTESIAN_POINT ( 'NONE',  ( 0.08000000000000000167, 0.000000000000000000, 0.000000000000000000 ) ) ;
#69 = CIRCLE ( 'NONE', #203, 0.07250000000000000888 ) ;
#70 = DIRECTION ( 'NONE',  ( 1.000000000000000000, 0.000000000000000000, 0.000000000000000000 ) ) ;
#71 = CC_DESIGN_PERSON_AND_ORGANIZATION_ASSIGNMENT ( #202, #278, ( #87 ) ) ;
#72 = PERSON_AND_ORGANIZATION_ROLE ( 'design_owner' ) ;
#73 = AXIS2_PLACEMENT_3D ( 'NONE', #33, #64, #214 ) ;
#74 = AXIS2_PLACEMENT_3D ( 'NONE', #1, #3, #162 ) ;
#75 = DATE_AND_TIME ( #46, #103 ) ;
#76 = AXIS2_PLACEMENT_3D ( 'NONE', #16, #124, #247 ) ;
#77 = PERSON_AND_ORGANIZATION ( #290, #223 ) ;
#78 = ADVANCED_FACE ( 'NONE', ( #315, #116 ), #324, .T. ) ;
#79 = CARTESIAN_POINT ( 'NONE',  ( 0.006370101124981850799, 0.000000000000000000, -0.06401951903843562663 ) ) ;
#80 = PERSON_AND_ORGANIZATION ( #290, #223 ) ;
#81 = FACE_OUTER_BOUND ( 'NONE', #256, .T. ) ;
#82 = CARTESIAN_POINT ( 'NONE',  ( -2.731847993664259829E-18, 0.000000000000000000, 0.000000000000000000 ) ) ;
#83 = PERSON_AND_ORGANIZATION_ROLE ( 'classification_officer' ) ;
#84 = CARTESIAN_POINT ( 'NONE',  ( 0.2049999999999999878, 0.000000000000000000, 0.000000000000000000 ) ) ;
#85 = APPROVAL_PERSON_ORGANIZATION ( #47, #8, #335 ) ;
#86 = SHAPE_DEFINITION_REPRESENTATION ( #167, #127 ) ;
#87 = PRODUCT_DEFINITION ( 'UNKNOWN', '', #6, #18 ) ;
#88 = CARTESIAN_POINT ( 'NONE',  ( 0.07000000000000000666, 0.000000000000000000, 0.000000000000000000 ) ) ;
#89 = ORIENTED_EDGE ( 'NONE', *, *, #177, .T. ) ;
#90 = DIRECTION ( 'NONE',  ( 1.000000000000000000, 0.000000000000000000, 0.000000000000000000 ) ) ;
#91 = CIRCLE ( 'NONE', #327, 0.06250000000000000000 ) ;
#92 = EDGE_CURVE ( 'NONE', #200, #200, #248, .T. ) ;
#93 = FACE_OUTER_BOUND ( 'NONE', #130, .T. ) ;
#94 = VERTEX_POINT ( 'NONE', #50 ) ;
#95 = DIRECTION ( 'NONE',  ( 0.000000000000000000, 0.000000000000000000, -1.000000000000000000 ) ) ;
#96 = ADVANCED_FACE ( 'NONE', ( #297, #312 ), #232, .T. ) ;
#97 = VERTEX_POINT ( 'NONE', #19 ) ;
#98 = CC_DESIGN_PERSON_AND_ORGANIZATION_ASSIGNMENT ( #80, #83, ( #146 ) ) ;
#99 = COORDINATED_UNIVERSAL_TIME_OFFSET ( 8, 0, .BEHIND. ) ;
#100 = AXIS2_PLACEMENT_3D ( 'NONE', #88, #285, #140 ) ;
#101 = CARTESIAN_POINT ( 'NONE',  ( 0.07000000000000000666, 0.000000000000000000, -0.06250000000000000000 ) ) ;
#102 = EDGE_CURVE ( 'NONE', #333, #333, #161, .T. ) ;
#103 = LOCAL_TIME ( 10, 37, 19.00000000000000000, #283 ) ;
#104 = ADVANCED_FACE ( 'NONE', ( #81, #168 ), #267, .T. ) ;
#105 = CARTESIAN_POINT ( 'NONE',  ( 0.08000000000000000167, 0.04900000000000000189, 0.000000000000000000 ) ) ;
#106 = EDGE_LOOP ( 'NONE', ( #165 ) ) ;
#107 = SECURITY_CLASSIFICATION_LEVEL ( 'unclassified' ) ;
#108 = FACE_OUTER_BOUND ( 'NONE', #60, .T. ) ;
#109 = EDGE_LOOP ( 'NONE', ( #186 ) ) ;
#110 = APPROVAL_ROLE ( '' ) ;
#111 = FACE_OUTER_BOUND ( 'NONE', #264, .T. ) ;
#112 = EDGE_LOOP ( 'NONE', ( #233 ) ) ;
#113 = CC_DESIGN_SECURITY_CLASSIFICATION ( #146, ( #6 ) ) ;
#114 = CALENDAR_DATE ( 2022, 30, 8 ) ;
#115 = ADVANCED_FACE ( 'NONE', ( #108, #111 ), #188, .T. ) ;
#116 = FACE_OUTER_BOUND ( 'NONE', #25, .T. ) ;
#117 = AXIS2_PLACEMENT_3D ( 'NONE', #178, #90, #326 ) ;
#118 = DIRECTION ( 'NONE',  ( 1.000000000000000000, 0.000000000000000000, 0.000000000000000000 ) ) ;
#119 = EDGE_CURVE ( 'NONE', #155, #155, #11, .T. ) ;
#120 = PLANE ( 'NONE',  #52 ) ;
#121 = ADVANCED_FACE ( 'NONE', ( #53, #216 ), #235, .T. ) ;
#122 =( GEOMETRIC_REPRESENTATION_CONTEXT ( 3 ) GLOBAL_UNCERTAINTY_ASSIGNED_CONTEXT ( ( #151 ) ) GLOBAL_UNIT_ASSIGNED_CONTEXT ( ( #308, #336, #128 ) ) REPRESENTATION_CONTEXT ( 'NONE', 'WORKASPACE' ) );
#123 = CARTESIAN_POINT ( 'NONE',  ( 0.003185050562490921496, 0.000000000000000000, 0.000000000000000000 ) ) ;
#124 = DIRECTION ( 'NONE',  ( 1.000000000000000000, 0.000000000000000000, 0.000000000000000000 ) ) ;
#125 = FACE_BOUND ( 'NONE', #192, .T. ) ;
#126 = APPROVAL_STATUS ( 'not_yet_approved' ) ;
#127 = ADVANCED_BREP_SHAPE_REPRESENTATION ( 'SC5274_3D', ( #303, #328 ), #122 ) ;
#128 =( NAMED_UNIT ( * ) SI_UNIT ( $, .STERADIAN. ) SOLID_ANGLE_UNIT ( ) );
#129 = CLOSED_SHELL ( 'NONE', ( #295, #42, #281, #104, #320, #137, #96, #269, #180, #121, #115, #78, #210 ) ) ;
#130 = EDGE_LOOP ( 'NONE', ( #164 ) ) ;
#131 = EDGE_CURVE ( 'NONE', #204, #204, #142, .T. ) ;
#132 = COORDINATED_UNIVERSAL_TIME_OFFSET ( 8, 0, .BEHIND. ) ;
#133 = CC_DESIGN_DATE_AND_TIME_ASSIGNMENT ( #234, #211, ( #146 ) ) ;
#134 = CARTESIAN_POINT ( 'NONE',  ( 0.07000000000000000666, 0.06250000000000000000, 0.000000000000000000 ) ) ;
#135 = AXIS2_PLACEMENT_3D ( 'NONE', #300, #194, #37 ) ;
#136 = EDGE_LOOP ( 'NONE', ( #286 ) ) ;
#137 = ADVANCED_FACE ( 'NONE', ( #93, #125 ), #171, .F. ) ;
#138 = DIRECTION ( 'NONE',  ( 1.000000000000000000, 0.000000000000000000, 0.000000000000000000 ) ) ;
#139 = ORIENTED_EDGE ( 'NONE', *, *, #92, .F. ) ;
#140 = DIRECTION ( 'NONE',  ( 0.000000000000000000, 1.000000000000000000, 0.000000000000000000 ) ) ;
#141 = DIRECTION ( 'NONE',  ( 0.000000000000000000, 0.000000000000000000, -1.000000000000000000 ) ) ;
#142 = CIRCLE ( 'NONE', #117, 0.04900000000000000189 ) ;
#143 = DIRECTION ( 'NONE',  ( 0.000000000000000000, 0.000000000000000000, -1.000000000000000000 ) ) ;
#144 = DIRECTION ( 'NONE',  ( -1.000000000000000000, 0.000000000000000000, 0.000000000000000000 ) ) ;
#145 = AXIS2_PLACEMENT_3D ( 'NONE', #105, #321, #191 ) ;
#146 = SECURITY_CLASSIFICATION ( '', '', #107 ) ;
#147 = FACE_BOUND ( 'NONE', #208, .T. ) ;
#148 = CC_DESIGN_PERSON_AND_ORGANIZATION_ASSIGNMENT ( #206, #72, ( #266 ) ) ;
#149 = DIRECTION ( 'NONE',  ( 0.000000000000000000, 0.000000000000000000, -1.000000000000000000 ) ) ;
#150 = DIRECTION ( 'NONE',  ( 0.000000000000000000, 1.000000000000000000, 0.000000000000000000 ) ) ;
#151 = UNCERTAINTY_MEASURE_WITH_UNIT (LENGTH_MEASURE( 1.000000000000000082E-05 ), #308, 'distance_accuracy_value', 'NONE');
#152 = VERTEX_POINT ( 'NONE', #79 ) ;
#153 = APPROVAL_STATUS ( 'not_yet_approved' ) ;
#154 = CARTESIAN_POINT ( 'NONE',  ( 0.2700000000000000178, 0.000000000000000000, -0.007499999999999999722 ) ) ;
#155 = VERTEX_POINT ( 'NONE', #21 ) ;
#156 = APPROVAL_PERSON_ORGANIZATION ( #77, #34, #179 ) ;
#157 = ORIENTED_EDGE ( 'NONE', *, *, #119, .F. ) ;
#158 = EDGE_LOOP ( 'NONE', ( #139 ) ) ;
#159 = ORIENTED_EDGE ( 'NONE', *, *, #102, .F. ) ;
#160 = ORIENTED_EDGE ( 'NONE', *, *, #15, .F. ) ;
#161 = CIRCLE ( 'NONE', #73, 0.06250000000000000000 ) ;
#162 = DIRECTION ( 'NONE',  ( 0.000000000000000000, 1.000000000000000000, 0.000000000000000000 ) ) ;
#163 = ORIENTED_EDGE ( 'NONE', *, *, #45, .T. ) ;
#164 = ORIENTED_EDGE ( 'NONE', *, *, #177, .F. ) ;
#165 = ORIENTED_EDGE ( 'NONE', *, *, #299, .F. ) ;
#166 = DIRECTION ( 'NONE',  ( 0.000000000000000000, 0.000000000000000000, -1.000000000000000000 ) ) ;
#167 = PRODUCT_DEFINITION_SHAPE ( 'NONE', 'NONE',  #87 ) ;
#168 = FACE_OUTER_BOUND ( 'NONE', #337, .T. ) ;
#169 = CIRCLE ( 'NONE', #36, 0.06401951903843562663 ) ;
#170 = FACE_OUTER_BOUND ( 'NONE', #55, .T. ) ;
#171 = CONICAL_SURFACE ( 'NONE', #228, 0.06600975951921791984, 0.5585053606381833458 ) ;
#172 = FACE_OUTER_BOUND ( 'NONE', #213, .T. ) ;
#173 = CARTESIAN_POINT ( 'NONE',  ( 0.000000000000000000, 0.000000000000000000, 0.000000000000000000 ) ) ;
#174 = AXIS2_PLACEMENT_3D ( 'NONE', #27, #288, #7 ) ;
#175 = LOCAL_TIME ( 10, 37, 19.00000000000000000, #132 ) ;
#176 = SPHERICAL_SURFACE ( 'NONE', #28, 0.007499999999999999722 ) ;
#177 = EDGE_CURVE ( 'NONE', #97, #97, #270, .T. ) ;
#178 = CARTESIAN_POINT ( 'NONE',  ( 0.1400000000000000133, 0.000000000000000000, 0.000000000000000000 ) ) ;
#179 = APPROVAL_ROLE ( '' ) ;
#180 = ADVANCED_FACE ( 'NONE', ( #276, #66 ), #272, .T. ) ;
#181 = AXIS2_PLACEMENT_3D ( 'NONE', #68, #43, #226 ) ;
#182 = VERTEX_POINT ( 'NONE', #101 ) ;
#183 = DATE_AND_TIME ( #309, #273 ) ;
#184 = EDGE_LOOP ( 'NONE', ( #163 ) ) ;
#185 = ORIENTED_EDGE ( 'NONE', *, *, #131, .F. ) ;
#186 = ORIENTED_EDGE ( 'NONE', *, *, #102, .T. ) ;
#187 = CALENDAR_DATE ( 2022, 30, 8 ) ;
#188 = CYLINDRICAL_SURFACE ( 'NONE', #305, 0.07250000000000000888 ) ;
#189 = LOCAL_TIME ( 10, 37, 19.00000000000000000, #215 ) ;
#190 = EDGE_LOOP ( 'NONE', ( #89 ) ) ;
#191 = DIRECTION ( 'NONE',  ( 0.000000000000000000, 1.000000000000000000, 0.000000000000000000 ) ) ;
#192 = EDGE_LOOP ( 'NONE', ( #310 ) ) ;
#193 = DIRECTION ( 'NONE',  ( 1.000000000000000000, 0.000000000000000000, 0.000000000000000000 ) ) ;
#194 = DIRECTION ( 'NONE',  ( 1.000000000000000000, 0.000000000000000000, 0.000000000000000000 ) ) ;
#195 = CARTESIAN_POINT ( 'NONE',  ( 0.1400000000000000133, 0.04000000000000000083, 0.000000000000000000 ) ) ;
#196 = DIRECTION ( 'NONE',  ( 1.000000000000000000, 0.000000000000000000, 0.000000000000000000 ) ) ;
#197 = DIRECTION ( 'NONE',  ( 0.000000000000000000, 0.000000000000000000, -1.000000000000000000 ) ) ;
#198 = VERTEX_POINT ( 'NONE', #12 ) ;
#199 = APPLICATION_CONTEXT ( 'configuration controlled 3d designs of mechanical parts and assemblies' ) ;
#200 = VERTEX_POINT ( 'NONE', #154 ) ;
#201 = CC_DESIGN_PERSON_AND_ORGANIZATION_ASSIGNMENT ( #63, #24, ( #6 ) ) ;
#202 = PERSON_AND_ORGANIZATION ( #290, #223 ) ;
#203 = AXIS2_PLACEMENT_3D ( 'NONE', #82, #258, #166 ) ;
#204 = VERTEX_POINT ( 'NONE', #334 ) ;
#205 = DIRECTION ( 'NONE',  ( 1.000000000000000000, 0.000000000000000000, 0.000000000000000000 ) ) ;
#206 = PERSON_AND_ORGANIZATION ( #290, #223 ) ;
#207 = PRODUCT_RELATED_PRODUCT_CATEGORY ( 'detail', '', ( #266 ) ) ;
#208 = EDGE_LOOP ( 'NONE', ( #262 ) ) ;
#209 = DIRECTION ( 'NONE',  ( 0.000000000000000000, 1.000000000000000000, 0.000000000000000000 ) ) ;
#210 = ADVANCED_FACE ( 'NONE', ( #147, #225 ), #120, .T. ) ;
#211 = DATE_TIME_ROLE ( 'classification_date' ) ;
#212 = FACE_OUTER_BOUND ( 'NONE', #184, .T. ) ;
#213 = EDGE_LOOP ( 'NONE', ( #159 ) ) ;
#214 = DIRECTION ( 'NONE',  ( 0.000000000000000000, 0.000000000000000000, -1.000000000000000000 ) ) ;
#215 = COORDINATED_UNIVERSAL_TIME_OFFSET ( 8, 0, .BEHIND. ) ;
#216 = FACE_OUTER_BOUND ( 'NONE', #260, .T. ) ;
#217 = ORIENTED_EDGE ( 'NONE', *, *, #131, .T. ) ;
#218 = APPROVAL_DATE_TIME ( #313, #307 ) ;
#219 = ORIENTED_EDGE ( 'NONE', *, *, #275, .T. ) ;
#220 = DIRECTION ( 'NONE',  ( -1.000000000000000000, 0.000000000000000000, 0.000000000000000000 ) ) ;
#221 = AXIS2_PLACEMENT_3D ( 'NONE', #261, #193, #61 ) ;
#222 = FACE_BOUND ( 'NONE', #190, .T. ) ;
#223 = ORGANIZATION ( 'UNSPECIFIED', 'UNSPECIFIED', '' ) ;
#224 = VERTEX_POINT ( 'NONE', #329 ) ;
#225 = FACE_OUTER_BOUND ( 'NONE', #30, .T. ) ;
#226 = DIRECTION ( 'NONE',  ( 0.000000000000000000, 0.000000000000000000, -1.000000000000000000 ) ) ;
#227 = CARTESIAN_POINT ( 'NONE',  ( 0.000000000000000000, 0.000000000000000000, 0.000000000000000000 ) ) ;
#228 = AXIS2_PLACEMENT_3D ( 'NONE', #123, #220, #150 ) ;
#229 = DATE_TIME_ROLE ( 'creation_date' ) ;
#230 = LENGTH_MEASURE_WITH_UNIT ( LENGTH_MEASURE( 0.02539999999999999897 ), #255 );
#231 = PERSON_AND_ORGANIZATION ( #290, #223 ) ;
#232 = TOROIDAL_SURFACE ( 'NONE', #259, 0.07250000000000000888, 0.01000000000000000021 ) ;
#233 = ORIENTED_EDGE ( 'NONE', *, *, #4, .F. ) ;
#234 = DATE_AND_TIME ( #187, #175 ) ;
#235 = PLANE ( 'NONE',  #145 ) ;
#236 = EDGE_CURVE ( 'NONE', #17, #17, #246, .T. ) ;
#237 = ORIENTED_EDGE ( 'NONE', *, *, #119, .T. ) ;
#238 = DIRECTION ( 'NONE',  ( 0.000000000000000000, 0.000000000000000000, -1.000000000000000000 ) ) ;
#239 = APPROVAL_DATE_TIME ( #2, #8 ) ;
#240 = DIRECTION ( 'NONE',  ( 0.000000000000000000, 1.000000000000000000, 0.000000000000000000 ) ) ;
#241 = ORIENTED_EDGE ( 'NONE', *, *, #15, .T. ) ;
#242 = CC_DESIGN_DATE_AND_TIME_ASSIGNMENT ( #75, #229, ( #87 ) ) ;
#243 = PERSON_AND_ORGANIZATION ( #290, #223 ) ;
#244 = DIRECTION ( 'NONE',  ( 1.000000000000000000, 0.000000000000000000, 0.000000000000000000 ) ) ;
#245 = DIRECTION ( 'NONE',  ( 0.000000000000000000, 1.000000000000000000, 0.000000000000000000 ) ) ;
#246 = CIRCLE ( 'NONE', #181, 0.04900000000000000189 ) ;
#247 = DIRECTION ( 'NONE',  ( 0.000000000000000000, 1.000000000000000000, 0.000000000000000000 ) ) ;
#248 = CIRCLE ( 'NONE', #221, 0.007499999999999999722 ) ;
#249 = DIRECTION ( 'NONE',  ( 0.000000000000000000, 0.000000000000000000, 1.000000000000000000 ) ) ;
#250 = CC_DESIGN_APPROVAL ( #34, ( #87 ) ) ;
#251 = FACE_OUTER_BOUND ( 'NONE', #112, .T. ) ;
#252 = DIRECTION ( 'NONE',  ( 1.000000000000000000, 0.000000000000000000, 0.000000000000000000 ) ) ;
#253 = CARTESIAN_POINT ( 'NONE',  ( 0.07000000000000000666, 0.000000000000000000, 0.000000000000000000 ) ) ;
#254 = CARTESIAN_POINT ( 'NONE',  ( 0.01166929376731389890, 0.000000000000000000, -0.06250000000000000000 ) ) ;
#255 =( LENGTH_UNIT ( ) NAMED_UNIT ( * ) SI_UNIT ( $, .METRE. ) );
#256 = EDGE_LOOP ( 'NONE', ( #241 ) ) ;
#257 = ORIENTED_EDGE ( 'NONE', *, *, #4, .T. ) ;
#258 = DIRECTION ( 'NONE',  ( 1.000000000000000000, 0.000000000000000000, 0.000000000000000000 ) ) ;
#259 = AXIS2_PLACEMENT_3D ( 'NONE', #5, #31, #238 ) ;
#260 = EDGE_LOOP ( 'NONE', ( #338 ) ) ;
#261 = CARTESIAN_POINT ( 'NONE',  ( 0.2700000000000000178, 0.000000000000000000, 0.000000000000000000 ) ) ;
#262 = ORIENTED_EDGE ( 'NONE', *, *, #45, .F. ) ;
#263 = FACE_OUTER_BOUND ( 'NONE', #158, .T. ) ;
#264 = EDGE_LOOP ( 'NONE', ( #51 ) ) ;
#265 = CYLINDRICAL_SURFACE ( 'NONE', #74, 0.007499999999999999722 ) ;
#266 = PRODUCT ( 'SC5274_3D', 'SC5274_3D', '', ( #304 ) ) ;
#267 = CYLINDRICAL_SURFACE ( 'NONE', #277, 0.007499999999999999722 ) ;
#268 = FACE_OUTER_BOUND ( 'NONE', #293, .T. ) ;
#269 = ADVANCED_FACE ( 'NONE', ( #172, #330 ), #65, .F. ) ;
#270 = CIRCLE ( 'NONE', #67, 0.06800000000000000488 ) ;
#271 = PLANE ( 'NONE',  #76 ) ;
#272 = CYLINDRICAL_SURFACE ( 'NONE', #314, 0.04900000000000000189 ) ;
#273 = LOCAL_TIME ( 10, 37, 19.00000000000000000, #99 ) ;
#274 = CARTESIAN_POINT ( 'NONE',  ( -2.731847993664259829E-18, 0.000000000000000000, -0.07250000000000000888 ) ) ;
#275 = EDGE_CURVE ( 'NONE', #182, #182, #91, .T. ) ;
#276 = FACE_OUTER_BOUND ( 'NONE', #322, .T. ) ;
#277 = AXIS2_PLACEMENT_3D ( 'NONE', #84, #35, #245 ) ;
#278 = PERSON_AND_ORGANIZATION_ROLE ( 'creator' ) ;
#279 = APPLICATION_CONTEXT ( 'configuration controlled 3d designs of mechanical parts and assemblies' ) ;
#280 = APPROVAL_DATE_TIME ( #183, #34 ) ;
#281 = ADVANCED_FACE ( 'NONE', ( #170 ), #176, .T. ) ;
#282 = DIRECTION ( 'NONE',  ( 0.000000000000000000, 0.000000000000000000, 1.000000000000000000 ) ) ;
#283 = COORDINATED_UNIVERSAL_TIME_OFFSET ( 8, 0, .BEHIND. ) ;
#284 = CC_DESIGN_PERSON_AND_ORGANIZATION_ASSIGNMENT ( #231, #311, ( #6 ) ) ;
#285 = DIRECTION ( 'NONE',  ( -1.000000000000000000, 0.000000000000000000, 0.000000000000000000 ) ) ;
#286 = ORIENTED_EDGE ( 'NONE', *, *, #236, .F. ) ;
#287 = CALENDAR_DATE ( 2022, 30, 8 ) ;
#288 = DIRECTION ( 'NONE',  ( 1.000000000000000000, 0.000000000000000000, 0.000000000000000000 ) ) ;
#289 = AXIS2_PLACEMENT_3D ( 'NONE', #317, #244, #141 ) ;
#290 = PERSON ( 'UNSPECIFIED', 'UNSPECIFIED', 'UNSPECIFIED', ('UNSPECIFIED'), ('UNSPECIFIED'), ('UNSPECIFIED') ) ;
#291 = APPROVAL_PERSON_ORGANIZATION ( #243, #307, #110 ) ;
#292 = DIRECTION ( 'NONE',  ( 1.000000000000000000, 0.000000000000000000, 0.000000000000000000 ) ) ;
#293 = EDGE_LOOP ( 'NONE', ( #318 ) ) ;
#294 = DIRECTION ( 'NONE',  ( 0.000000000000000000, 0.000000000000000000, 1.000000000000000000 ) ) ;
#295 = ADVANCED_FACE ( 'NONE', ( #268 ), #271, .T. ) ;
#296 = ORIENTED_EDGE ( 'NONE', *, *, #236, .T. ) ;
#297 = FACE_OUTER_BOUND ( 'NONE', #109, .T. ) ;
#298 = DIRECTION ( 'NONE',  ( 1.000000000000000000, 0.000000000000000000, 0.000000000000000000 ) ) ;
#299 = EDGE_CURVE ( 'NONE', #152, #152, #169, .T. ) ;
#300 = CARTESIAN_POINT ( 'NONE',  ( 0.04083464688365700396, 0.000000000000000000, 0.000000000000000000 ) ) ;
#301 = CARTESIAN_POINT ( 'NONE',  ( 0.006370101124981850799, 0.000000000000000000, 0.000000000000000000 ) ) ;
#302 = VERTEX_POINT ( 'NONE', #274 ) ;
#303 = MANIFOLD_SOLID_BREP ( 'Imported1', #129 ) ;
#304 = MECHANICAL_CONTEXT ( 'NONE', #199, 'mechanical' ) ;
#305 = AXIS2_PLACEMENT_3D ( 'NONE', #59, #138, #240 ) ;
#306 = DIMENSIONAL_EXPONENTS ( 1.000000000000000000, 0.000000000000000000, 0.000000000000000000, 0.000000000000000000, 0.000000000000000000, 0.000000000000000000, 0.000000000000000000 ) ;
#307 = APPROVAL ( #32, 'UNSPECIFIED' ) ;
#308 =( CONVERSION_BASED_UNIT ( 'INCH', #230 ) LENGTH_UNIT ( ) NAMED_UNIT ( #306 ) );
#309 = CALENDAR_DATE ( 2022, 30, 8 ) ;
#310 = ORIENTED_EDGE ( 'NONE', *, *, #299, .T. ) ;
#311 = PERSON_AND_ORGANIZATION_ROLE ( 'design_supplier' ) ;
#312 = FACE_OUTER_BOUND ( 'NONE', #106, .T. ) ;
#313 = DATE_AND_TIME ( #287, #41 ) ;
#314 = AXIS2_PLACEMENT_3D ( 'NONE', #10, #252, #331 ) ;
#315 = FACE_BOUND ( 'NONE', #49, .T. ) ;
#316 = EDGE_LOOP ( 'NONE', ( #185 ) ) ;
#317 = CARTESIAN_POINT ( 'NONE',  ( 0.08000000000000000167, 0.000000000000000000, 0.000000000000000000 ) ) ;
#318 = ORIENTED_EDGE ( 'NONE', *, *, #92, .T. ) ;
#319 = CIRCLE ( 'NONE', #174, 0.007499999999999999722 ) ;
#320 = ADVANCED_FACE ( 'NONE', ( #222, #251 ), #38, .T. ) ;
#321 = DIRECTION ( 'NONE',  ( 1.000000000000000000, 0.000000000000000000, 0.000000000000000000 ) ) ;
#322 = EDGE_LOOP ( 'NONE', ( #296 ) ) ;
#323 = COORDINATED_UNIVERSAL_TIME_OFFSET ( 8, 0, .BEHIND. ) ;
#324 = PLANE ( 'NONE',  #56 ) ;
#325 = CARTESIAN_POINT ( 'NONE',  ( 0.02750000000000000014, 0.000000000000000000, 0.000000000000000000 ) ) ;
#326 = DIRECTION ( 'NONE',  ( 0.000000000000000000, 0.000000000000000000, -1.000000000000000000 ) ) ;
#327 = AXIS2_PLACEMENT_3D ( 'NONE', #253, #118, #143 ) ;
#328 = AXIS2_PLACEMENT_3D ( 'NONE', #227, #282, #205 ) ;
#329 = CARTESIAN_POINT ( 'NONE',  ( 0.1400000000000000133, 0.007499999999999999722, 0.000000000000000000 ) ) ;
#330 = FACE_OUTER_BOUND ( 'NONE', #29, .T. ) ;
#331 = DIRECTION ( 'NONE',  ( 0.000000000000000000, 1.000000000000000000, 0.000000000000000000 ) ) ;
#332 = AXIS2_PLACEMENT_3D ( 'NONE', #14, #144, #249 ) ;
#333 = VERTEX_POINT ( 'NONE', #254 ) ;
#334 = CARTESIAN_POINT ( 'NONE',  ( 0.1400000000000000133, 0.000000000000000000, -0.04900000000000000189 ) ) ;
#335 = APPROVAL_ROLE ( '' ) ;
#336 =( NAMED_UNIT ( * ) PLANE_ANGLE_UNIT ( ) SI_UNIT ( $, .RADIAN. ) );
#337 = EDGE_LOOP ( 'NONE', ( #237 ) ) ;
#338 = ORIENTED_EDGE ( 'NONE', *, *, #54, .T. ) ;
ENDSEC;
END-ISO-10303-21;
