ISO-10303-21;
HEADER;
FILE_DESCRIPTION (( 'STEP AP203' ),
    '1' );
FILE_NAME ('LMR-200-FR_3D.step',
    '2021-08-03T15:30:21',
    ( '' ),
    ( '' ),
    'SwSTEP 2.0',
    'SolidWorks 2021',
    '' );
FILE_SCHEMA (( 'CONFIG_CONTROL_DESIGN' ));
ENDSEC;

DATA;
#1 = CC_DESIGN_PERSON_AND_ORGANIZATION_ASSIGNMENT ( #134, #269, ( #145 ) ) ;
#2 = DIRECTION ( 'NONE',  ( 0.000000000000000000, 0.000000000000000000, 1.000000000000000000 ) ) ;
#3 = ORIENTED_EDGE ( 'NONE', *, *, #16, .T. ) ;
#4 = DIRECTION ( 'NONE',  ( 0.000000000000000000, 0.000000000000000000, -1.000000000000000000 ) ) ;
#5 = DIRECTION ( 'NONE',  ( 1.000000000000000000, 0.000000000000000000, 0.000000000000000000 ) ) ;
#6 = ADVANCED_FACE ( 'NONE', ( #194, #80 ), #8, .T. ) ;
#7 = PLANE ( 'NONE',  #34 ) ;
#8 = CYLINDRICAL_SURFACE ( 'NONE', #202, 0.05800000000000000294 ) ;
#9 = CIRCLE ( 'NONE', #264, 0.05800000000000000294 ) ;
#10 = PLANE ( 'NONE',  #128 ) ;
#11 = APPROVAL_PERSON_ORGANIZATION ( #97, #289, #183 ) ;
#12 = VERTEX_POINT ( 'NONE', #86 ) ;
#13 = CARTESIAN_POINT ( 'NONE',  ( 0.2000000000000000111, 0.000000000000000000, -0.07199999999999999456 ) ) ;
#14 = PERSON ( 'UNSPECIFIED', 'UNSPECIFIED', 'UNSPECIFIED', ('UNSPECIFIED'), ('UNSPECIFIED'), ('UNSPECIFIED') ) ;
#15 = DIRECTION ( 'NONE',  ( 0.000000000000000000, 0.000000000000000000, -1.000000000000000000 ) ) ;
#16 = EDGE_CURVE ( 'NONE', #132, #132, #142, .T. ) ;
#17 = DIRECTION ( 'NONE',  ( 1.000000000000000000, 0.000000000000000000, 0.000000000000000000 ) ) ;
#18 = DIRECTION ( 'NONE',  ( 0.000000000000000000, 0.000000000000000000, -1.000000000000000000 ) ) ;
#19 = AXIS2_PLACEMENT_3D ( 'NONE', #31, #33, #170 ) ;
#20 = CIRCLE ( 'NONE', #61, 0.09750000000000000333 ) ;
#21 = COORDINATED_UNIVERSAL_TIME_OFFSET ( 8, 0, .BEHIND. ) ;
#22 = PRODUCT_DEFINITION ( 'UNKNOWN', '', #145, #164 ) ;
#23 = CALENDAR_DATE ( 2021, 3, 8 ) ;
#24 = EDGE_LOOP ( 'NONE', ( #27 ) ) ;
#25 = CARTESIAN_POINT ( 'NONE',  ( 0.000000000000000000, 0.000000000000000000, 0.000000000000000000 ) ) ;
#26 = ORGANIZATION ( 'UNSPECIFIED', 'UNSPECIFIED', '' ) ;
#27 = ORIENTED_EDGE ( 'NONE', *, *, #280, .T. ) ;
#28 = ORIENTED_EDGE ( 'NONE', *, *, #190, .F. ) ;
#29 = CARTESIAN_POINT ( 'NONE',  ( 0.8000000000000000444, 0.000000000000000000, 0.000000000000000000 ) ) ;
#30 = ADVANCED_FACE ( 'NONE', ( #232, #257 ), #256, .T. ) ;
#31 = CARTESIAN_POINT ( 'NONE',  ( 0.5999999999999999778, 0.000000000000000000, 0.000000000000000000 ) ) ;
#32 = UNCERTAINTY_MEASURE_WITH_UNIT (LENGTH_MEASURE( 1.000000000000000082E-05 ), #201, 'distance_accuracy_value', 'NONE');
#33 = DIRECTION ( 'NONE',  ( 1.000000000000000000, 0.000000000000000000, 0.000000000000000000 ) ) ;
#34 = AXIS2_PLACEMENT_3D ( 'NONE', #277, #171, #105 ) ;
#35 = CARTESIAN_POINT ( 'NONE',  ( 0.4000000000000000222, 0.000000000000000000, 0.000000000000000000 ) ) ;
#36 = DIRECTION ( 'NONE',  ( 0.000000000000000000, 0.000000000000000000, -1.000000000000000000 ) ) ;
#37 = PLANE ( 'NONE',  #193 ) ;
#38 = CARTESIAN_POINT ( 'NONE',  ( 0.000000000000000000, 0.000000000000000000, 0.000000000000000000 ) ) ;
#39 =( LENGTH_UNIT ( ) NAMED_UNIT ( * ) SI_UNIT ( $, .METRE. ) );
#40 = ADVANCED_FACE ( 'NONE', ( #101, #168 ), #7, .T. ) ;
#41 = CARTESIAN_POINT ( 'NONE',  ( -1.760000000000000675, 0.000000000000000000, 0.000000000000000000 ) ) ;
#42 = PERSON_AND_ORGANIZATION_ROLE ( 'creator' ) ;
#43 = PERSON_AND_ORGANIZATION ( #14, #26 ) ;
#44 = ORIENTED_EDGE ( 'NONE', *, *, #239, .T. ) ;
#45 = ORIENTED_EDGE ( 'NONE', *, *, #181, .T. ) ;
#46 = CC_DESIGN_DATE_AND_TIME_ASSIGNMENT ( #205, #297, ( #231 ) ) ;
#47 = APPROVAL_STATUS ( 'not_yet_approved' ) ;
#48 = CIRCLE ( 'NONE', #214, 0.09750000000000000333 ) ;
#49 = EDGE_LOOP ( 'NONE', ( #270 ) ) ;
#50 = CC_DESIGN_APPROVAL ( #110, ( #145 ) ) ;
#51 = EDGE_LOOP ( 'NONE', ( #72 ) ) ;
#52 = FACE_OUTER_BOUND ( 'NONE', #185, .T. ) ;
#53 = FACE_OUTER_BOUND ( 'NONE', #51, .T. ) ;
#54 = CARTESIAN_POINT ( 'NONE',  ( 0.5999999999999999778, 0.000000000000000000, 0.000000000000000000 ) ) ;
#55 = DIRECTION ( 'NONE',  ( 0.000000000000000000, 0.000000000000000000, 1.000000000000000000 ) ) ;
#56 = DIRECTION ( 'NONE',  ( 1.000000000000000000, 0.000000000000000000, 0.000000000000000000 ) ) ;
#57 = AXIS2_PLACEMENT_3D ( 'NONE', #38, #109, #18 ) ;
#58 = DIRECTION ( 'NONE',  ( 0.000000000000000000, 0.000000000000000000, -1.000000000000000000 ) ) ;
#59 = FACE_OUTER_BOUND ( 'NONE', #24, .T. ) ;
#60 = CARTESIAN_POINT ( 'NONE',  ( 0.4000000000000000222, 0.000000000000000000, 0.000000000000000000 ) ) ;
#61 = AXIS2_PLACEMENT_3D ( 'NONE', #191, #233, #4 ) ;
#62 = CARTESIAN_POINT ( 'NONE',  ( 0.5999999999999999778, 0.000000000000000000, -0.02199999999999999872 ) ) ;
#63 = EDGE_CURVE ( 'NONE', #216, #216, #112, .T. ) ;
#64 = VERTEX_POINT ( 'NONE', #158 ) ;
#65 = APPROVAL_ROLE ( '' ) ;
#66 = ORIENTED_EDGE ( 'NONE', *, *, #226, .T. ) ;
#67 = PERSON_AND_ORGANIZATION ( #14, #26 ) ;
#68 = COORDINATED_UNIVERSAL_TIME_OFFSET ( 8, 0, .BEHIND. ) ;
#69 = CC_DESIGN_PERSON_AND_ORGANIZATION_ASSIGNMENT ( #119, #139, ( #210 ) ) ;
#70 = ORIENTED_EDGE ( 'NONE', *, *, #280, .F. ) ;
#71 = CALENDAR_DATE ( 2021, 3, 8 ) ;
#72 = ORIENTED_EDGE ( 'NONE', *, *, #246, .T. ) ;
#73 = DATE_TIME_ROLE ( 'creation_date' ) ;
#74 = AXIS2_PLACEMENT_3D ( 'NONE', #131, #17, #58 ) ;
#75 = EDGE_LOOP ( 'NONE', ( #70 ) ) ;
#76 = ADVANCED_FACE ( 'NONE', ( #255, #53 ), #282, .T. ) ;
#77 = APPROVAL_PERSON_ORGANIZATION ( #223, #207, #65 ) ;
#78 = DIRECTION ( 'NONE',  ( 0.000000000000000000, 0.000000000000000000, -1.000000000000000000 ) ) ;
#79 = DIRECTION ( 'NONE',  ( 0.000000000000000000, 0.000000000000000000, 1.000000000000000000 ) ) ;
#80 = FACE_OUTER_BOUND ( 'NONE', #49, .T. ) ;
#81 = FACE_OUTER_BOUND ( 'NONE', #296, .T. ) ;
#82 = CARTESIAN_POINT ( 'NONE',  ( 0.4000000000000000222, 0.000000000000000000, 0.000000000000000000 ) ) ;
#83 = DIRECTION ( 'NONE',  ( 1.000000000000000000, 0.000000000000000000, 0.000000000000000000 ) ) ;
#84 = ADVANCED_FACE ( 'NONE', ( #52 ), #237, .F. ) ;
#85 = PLANE ( 'NONE',  #236 ) ;
#86 = CARTESIAN_POINT ( 'NONE',  ( 0.4000000000000000222, 0.000000000000000000, -0.05800000000000000294 ) ) ;
#87 = DIRECTION ( 'NONE',  ( 1.000000000000000000, 0.000000000000000000, 0.000000000000000000 ) ) ;
#88 = ADVANCED_FACE ( 'NONE', ( #126, #81 ), #192, .T. ) ;
#89 = AXIS2_PLACEMENT_3D ( 'NONE', #281, #148, #55 ) ;
#90 = CIRCLE ( 'NONE', #74, 0.02199999999999999872 ) ;
#91 = CC_DESIGN_SECURITY_CLASSIFICATION ( #231, ( #145 ) ) ;
#92 = APPLICATION_PROTOCOL_DEFINITION ( 'international standard', 'config_control_design', 1994, #137 ) ;
#93 = ORIENTED_EDGE ( 'NONE', *, *, #190, .T. ) ;
#94 = DATE_AND_TIME ( #252, #204 ) ;
#95 = EDGE_LOOP ( 'NONE', ( #161 ) ) ;
#96 = DIMENSIONAL_EXPONENTS ( 1.000000000000000000, 0.000000000000000000, 0.000000000000000000, 0.000000000000000000, 0.000000000000000000, 0.000000000000000000, 0.000000000000000000 ) ;
#97 = PERSON_AND_ORGANIZATION ( #14, #26 ) ;
#98 = ORIENTED_EDGE ( 'NONE', *, *, #63, .T. ) ;
#99 = ORIENTED_EDGE ( 'NONE', *, *, #181, .F. ) ;
#100 = ORIENTED_EDGE ( 'NONE', *, *, #63, .F. ) ;
#101 = FACE_BOUND ( 'NONE', #182, .T. ) ;
#102 = DIRECTION ( 'NONE',  ( 1.000000000000000000, 0.000000000000000000, 0.000000000000000000 ) ) ;
#103 = DIRECTION ( 'NONE',  ( 1.000000000000000000, 0.000000000000000000, 0.000000000000000000 ) ) ;
#104 = CC_DESIGN_PERSON_AND_ORGANIZATION_ASSIGNMENT ( #67, #184, ( #145 ) ) ;
#105 = DIRECTION ( 'NONE',  ( 0.000000000000000000, 0.000000000000000000, -1.000000000000000000 ) ) ;
#106 = ORIENTED_EDGE ( 'NONE', *, *, #141, .F. ) ;
#107 = LOCAL_TIME ( 8, 30, 21.00000000000000000, #248 ) ;
#108 = VERTEX_POINT ( 'NONE', #220 ) ;
#109 = DIRECTION ( 'NONE',  ( 1.000000000000000000, 0.000000000000000000, 0.000000000000000000 ) ) ;
#110 = APPROVAL ( #160, 'UNSPECIFIED' ) ;
#111 = FACE_OUTER_BOUND ( 'NONE', #253, .T. ) ;
#112 = CIRCLE ( 'NONE', #156, 0.05800000000000000294 ) ;
#113 = AXIS2_PLACEMENT_3D ( 'NONE', #82, #102, #129 ) ;
#114 = APPROVAL_DATE_TIME ( #273, #289 ) ;
#115 = LOCAL_TIME ( 8, 30, 21.00000000000000000, #224 ) ;
#116 = APPLICATION_CONTEXT ( 'configuration controlled 3d designs of mechanical parts and assemblies' ) ;
#117 =( NAMED_UNIT ( * ) PLANE_ANGLE_UNIT ( ) SI_UNIT ( $, .RADIAN. ) );
#118 = EDGE_CURVE ( 'NONE', #12, #12, #9, .T. ) ;
#119 = PERSON_AND_ORGANIZATION ( #14, #26 ) ;
#120 = ORIENTED_EDGE ( 'NONE', *, *, #226, .F. ) ;
#121 = APPLICATION_PROTOCOL_DEFINITION ( 'international standard', 'config_control_design', 1994, #116 ) ;
#122 = CARTESIAN_POINT ( 'NONE',  ( -1.760000000000000675, 0.000000000000000000, 0.000000000000000000 ) ) ;
#123 = ADVANCED_BREP_SHAPE_REPRESENTATION ( 'LMR-200-FR_3D', ( #221, #254 ), #278 ) ;
#124 = EDGE_LOOP ( 'NONE', ( #45 ) ) ;
#125 = ADVANCED_FACE ( 'NONE', ( #259, #149 ), #10, .T. ) ;
#126 = FACE_BOUND ( 'NONE', #249, .T. ) ;
#127 = CARTESIAN_POINT ( 'NONE',  ( 0.5999999999999999778, 0.000000000000000000, 0.000000000000000000 ) ) ;
#128 = AXIS2_PLACEMENT_3D ( 'NONE', #35, #147, #284 ) ;
#129 = DIRECTION ( 'NONE',  ( 0.000000000000000000, 0.000000000000000000, -1.000000000000000000 ) ) ;
#130 = LOCAL_TIME ( 8, 30, 21.00000000000000000, #21 ) ;
#131 = CARTESIAN_POINT ( 'NONE',  ( 0.8000000000000000444, 0.000000000000000000, 0.000000000000000000 ) ) ;
#132 = VERTEX_POINT ( 'NONE', #62 ) ;
#133 = CARTESIAN_POINT ( 'NONE',  ( 0.8000000000000000444, 0.000000000000000000, 0.000000000000000000 ) ) ;
#134 = PERSON_AND_ORGANIZATION ( #14, #26 ) ;
#135 = PERSON_AND_ORGANIZATION ( #14, #26 ) ;
#136 = PERSON_AND_ORGANIZATION_ROLE ( 'classification_officer' ) ;
#137 = APPLICATION_CONTEXT ( 'configuration controlled 3d designs of mechanical parts and assemblies' ) ;
#138 = EDGE_LOOP ( 'NONE', ( #3 ) ) ;
#139 = PERSON_AND_ORGANIZATION_ROLE ( 'design_owner' ) ;
#140 = ORIENTED_EDGE ( 'NONE', *, *, #16, .F. ) ;
#141 = EDGE_CURVE ( 'NONE', #240, #240, #152, .T. ) ;
#142 = CIRCLE ( 'NONE', #19, 0.02199999999999999872 ) ;
#143 = AXIS2_PLACEMENT_3D ( 'NONE', #127, #5, #215 ) ;
#144 = CALENDAR_DATE ( 2021, 3, 8 ) ;
#145 = PRODUCT_DEFINITION_FORMATION_WITH_SPECIFIED_SOURCE ( 'ANY', '', #210, .NOT_KNOWN. ) ;
#146 = DIRECTION ( 'NONE',  ( -1.000000000000000000, -0.000000000000000000, -0.000000000000000000 ) ) ;
#147 = DIRECTION ( 'NONE',  ( 1.000000000000000000, 0.000000000000000000, 0.000000000000000000 ) ) ;
#148 = DIRECTION ( 'NONE',  ( -1.000000000000000000, -0.000000000000000000, -0.000000000000000000 ) ) ;
#149 = FACE_OUTER_BOUND ( 'NONE', #189, .T. ) ;
#150 = CC_DESIGN_PERSON_AND_ORGANIZATION_ASSIGNMENT ( #43, #136, ( #231 ) ) ;
#151 = DIRECTION ( 'NONE',  ( 0.000000000000000000, 0.000000000000000000, -1.000000000000000000 ) ) ;
#152 = CIRCLE ( 'NONE', #113, 0.06050000000000001210 ) ;
#153 = CARTESIAN_POINT ( 'NONE',  ( 0.5999999999999999778, 0.000000000000000000, -0.05800000000000000294 ) ) ;
#154 = FACE_OUTER_BOUND ( 'NONE', #124, .T. ) ;
#155 = CARTESIAN_POINT ( 'NONE',  ( -1.760000000000000675, 0.000000000000000000, -0.09750000000000000333 ) ) ;
#156 = AXIS2_PLACEMENT_3D ( 'NONE', #54, #195, #78 ) ;
#157 = CC_DESIGN_DATE_AND_TIME_ASSIGNMENT ( #295, #73, ( #22 ) ) ;
#158 = CARTESIAN_POINT ( 'NONE',  ( 0.8000000000000000444, 0.000000000000000000, -0.02199999999999999872 ) ) ;
#159 = APPROVAL_DATE_TIME ( #186, #207 ) ;
#160 = APPROVAL_STATUS ( 'not_yet_approved' ) ;
#161 = ORIENTED_EDGE ( 'NONE', *, *, #239, .F. ) ;
#162 = APPROVAL_ROLE ( '' ) ;
#163 = AXIS2_PLACEMENT_3D ( 'NONE', #41, #175, #15 ) ;
#164 = DESIGN_CONTEXT ( 'detailed design', #137, 'design' ) ;
#165 = APPROVAL_STATUS ( 'not_yet_approved' ) ;
#166 = EDGE_LOOP ( 'NONE', ( #44 ) ) ;
#167 = APPROVAL_PERSON_ORGANIZATION ( #135, #110, #162 ) ;
#168 = FACE_OUTER_BOUND ( 'NONE', #166, .T. ) ;
#169 = PRODUCT_DEFINITION_SHAPE ( 'NONE', 'NONE',  #22 ) ;
#170 = DIRECTION ( 'NONE',  ( 0.000000000000000000, 0.000000000000000000, -1.000000000000000000 ) ) ;
#171 = DIRECTION ( 'NONE',  ( 1.000000000000000000, 0.000000000000000000, 0.000000000000000000 ) ) ;
#172 = DIRECTION ( 'NONE',  ( 0.000000000000000000, 0.000000000000000000, -1.000000000000000000 ) ) ;
#173 = CARTESIAN_POINT ( 'NONE',  ( 0.2000000000000000111, 0.000000000000000000, 0.000000000000000000 ) ) ;
#174 = CYLINDRICAL_SURFACE ( 'NONE', #203, 0.06050000000000001210 ) ;
#175 = DIRECTION ( 'NONE',  ( 1.000000000000000000, 0.000000000000000000, 0.000000000000000000 ) ) ;
#176 = VERTEX_POINT ( 'NONE', #13 ) ;
#177 = CARTESIAN_POINT ( 'NONE',  ( 0.000000000000000000, 0.000000000000000000, 0.000000000000000000 ) ) ;
#178 = AXIS2_PLACEMENT_3D ( 'NONE', #29, #211, #212 ) ;
#179 = AXIS2_PLACEMENT_3D ( 'NONE', #242, #87, #243 ) ;
#180 = DIRECTION ( 'NONE',  ( 0.000000000000000000, 0.000000000000000000, -1.000000000000000000 ) ) ;
#181 = EDGE_CURVE ( 'NONE', #176, #176, #276, .T. ) ;
#182 = EDGE_LOOP ( 'NONE', ( #247 ) ) ;
#183 = APPROVAL_ROLE ( '' ) ;
#184 = PERSON_AND_ORGANIZATION_ROLE ( 'design_supplier' ) ;
#185 = EDGE_LOOP ( 'NONE', ( #28 ) ) ;
#186 = DATE_AND_TIME ( #71, #107 ) ;
#187 = ORIENTED_EDGE ( 'NONE', *, *, #118, .F. ) ;
#188 = CIRCLE ( 'NONE', #179, 0.06050000000000001210 ) ;
#189 = EDGE_LOOP ( 'NONE', ( #272 ) ) ;
#190 = EDGE_CURVE ( 'NONE', #263, #263, #20, .T. ) ;
#191 = CARTESIAN_POINT ( 'NONE',  ( -1.760000000000000675, 0.000000000000000000, 0.000000000000000000 ) ) ;
#192 = PLANE ( 'NONE',  #143 ) ;
#193 = AXIS2_PLACEMENT_3D ( 'NONE', #133, #83, #180 ) ;
#194 = FACE_OUTER_BOUND ( 'NONE', #298, .T. ) ;
#195 = DIRECTION ( 'NONE',  ( 1.000000000000000000, 0.000000000000000000, 0.000000000000000000 ) ) ;
#196 = LENGTH_MEASURE_WITH_UNIT ( LENGTH_MEASURE( 0.02539999999999999897 ), #39 );
#197 = VERTEX_POINT ( 'NONE', #290 ) ;
#198 = ADVANCED_FACE ( 'NONE', ( #261, #287 ), #174, .T. ) ;
#199 = CYLINDRICAL_SURFACE ( 'NONE', #163, 0.09750000000000000333 ) ;
#200 = CARTESIAN_POINT ( 'NONE',  ( 0.000000000000000000, 0.000000000000000000, -0.09750000000000000333 ) ) ;
#201 =( CONVERSION_BASED_UNIT ( 'INCH', #196 ) LENGTH_UNIT ( ) NAMED_UNIT ( #96 ) );
#202 = AXIS2_PLACEMENT_3D ( 'NONE', #279, #146, #79 ) ;
#203 = AXIS2_PLACEMENT_3D ( 'NONE', #60, #241, #286 ) ;
#204 = LOCAL_TIME ( 8, 30, 21.00000000000000000, #274 ) ;
#205 = DATE_AND_TIME ( #222, #115 ) ;
#206 = EDGE_LOOP ( 'NONE', ( #187 ) ) ;
#207 = APPROVAL ( #165, 'UNSPECIFIED' ) ;
#208 = MECHANICAL_CONTEXT ( 'NONE', #116, 'mechanical' ) ;
#209 = DIRECTION ( 'NONE',  ( 1.000000000000000000, 0.000000000000000000, 0.000000000000000000 ) ) ;
#210 = PRODUCT ( 'LMR-200-FR_3D', 'LMR-200-FR_3D', '', ( #208 ) ) ;
#211 = DIRECTION ( 'NONE',  ( -1.000000000000000000, -0.000000000000000000, -0.000000000000000000 ) ) ;
#212 = DIRECTION ( 'NONE',  ( 0.000000000000000000, 0.000000000000000000, 1.000000000000000000 ) ) ;
#213 = AXIS2_PLACEMENT_3D ( 'NONE', #122, #103, #260 ) ;
#214 = AXIS2_PLACEMENT_3D ( 'NONE', #177, #262, #36 ) ;
#215 = DIRECTION ( 'NONE',  ( 0.000000000000000000, 0.000000000000000000, -1.000000000000000000 ) ) ;
#216 = VERTEX_POINT ( 'NONE', #153 ) ;
#217 = CARTESIAN_POINT ( 'NONE',  ( 0.4000000000000000222, 0.000000000000000000, -0.06050000000000001210 ) ) ;
#218 = CARTESIAN_POINT ( 'NONE',  ( 0.2000000000000000111, 0.000000000000000000, 0.000000000000000000 ) ) ;
#219 = DIRECTION ( 'NONE',  ( 0.000000000000000000, 0.000000000000000000, -1.000000000000000000 ) ) ;
#220 = CARTESIAN_POINT ( 'NONE',  ( 0.2000000000000000111, 0.000000000000000000, -0.06050000000000001210 ) ) ;
#221 = MANIFOLD_SOLID_BREP ( 'Boss-Extrude5', #291 ) ;
#222 = CALENDAR_DATE ( 2021, 3, 8 ) ;
#223 = PERSON_AND_ORGANIZATION ( #14, #26 ) ;
#224 = COORDINATED_UNIVERSAL_TIME_OFFSET ( 8, 0, .BEHIND. ) ;
#225 = EDGE_LOOP ( 'NONE', ( #106 ) ) ;
#226 = EDGE_CURVE ( 'NONE', #108, #108, #188, .T. ) ;
#227 = APPROVAL_DATE_TIME ( #94, #110 ) ;
#228 = AXIS2_PLACEMENT_3D ( 'NONE', #173, #56, #151 ) ;
#229 = SHAPE_DEFINITION_REPRESENTATION ( #169, #123 ) ;
#230 = EDGE_LOOP ( 'NONE', ( #120 ) ) ;
#231 = SECURITY_CLASSIFICATION ( '', '', #245 ) ;
#232 = FACE_OUTER_BOUND ( 'NONE', #75, .T. ) ;
#233 = DIRECTION ( 'NONE',  ( 1.000000000000000000, 0.000000000000000000, 0.000000000000000000 ) ) ;
#234 = CARTESIAN_POINT ( 'NONE',  ( 0.4000000000000000222, 0.000000000000000000, 0.000000000000000000 ) ) ;
#235 = PRODUCT_RELATED_PRODUCT_CATEGORY ( 'detail', '', ( #210 ) ) ;
#236 = AXIS2_PLACEMENT_3D ( 'NONE', #218, #288, #219 ) ;
#237 = PLANE ( 'NONE',  #213 ) ;
#238 = LOCAL_TIME ( 8, 30, 21.00000000000000000, #68 ) ;
#239 = EDGE_CURVE ( 'NONE', #293, #293, #48, .T. ) ;
#240 = VERTEX_POINT ( 'NONE', #217 ) ;
#241 = DIRECTION ( 'NONE',  ( -1.000000000000000000, -0.000000000000000000, -0.000000000000000000 ) ) ;
#242 = CARTESIAN_POINT ( 'NONE',  ( 0.2000000000000000111, 0.000000000000000000, 0.000000000000000000 ) ) ;
#243 = DIRECTION ( 'NONE',  ( 0.000000000000000000, 0.000000000000000000, -1.000000000000000000 ) ) ;
#244 = PERSON_AND_ORGANIZATION ( #14, #26 ) ;
#245 = SECURITY_CLASSIFICATION_LEVEL ( 'unclassified' ) ;
#246 = EDGE_CURVE ( 'NONE', #197, #197, #292, .T. ) ;
#247 = ORIENTED_EDGE ( 'NONE', *, *, #246, .F. ) ;
#248 = COORDINATED_UNIVERSAL_TIME_OFFSET ( 8, 0, .BEHIND. ) ;
#249 = EDGE_LOOP ( 'NONE', ( #140 ) ) ;
#250 = EDGE_LOOP ( 'NONE', ( #66 ) ) ;
#251 = ADVANCED_FACE ( 'NONE', ( #267, #154 ), #85, .T. ) ;
#252 = CALENDAR_DATE ( 2021, 3, 8 ) ;
#253 = EDGE_LOOP ( 'NONE', ( #93 ) ) ;
#254 = AXIS2_PLACEMENT_3D ( 'NONE', #25, #2, #268 ) ;
#255 = FACE_OUTER_BOUND ( 'NONE', #275, .T. ) ;
#256 = CYLINDRICAL_SURFACE ( 'NONE', #178, 0.02199999999999999872 ) ;
#257 = FACE_OUTER_BOUND ( 'NONE', #138, .T. ) ;
#258 = ADVANCED_FACE ( 'NONE', ( #59 ), #37, .T. ) ;
#259 = FACE_BOUND ( 'NONE', #206, .T. ) ;
#260 = DIRECTION ( 'NONE',  ( 0.000000000000000000, 0.000000000000000000, -1.000000000000000000 ) ) ;
#261 = FACE_OUTER_BOUND ( 'NONE', #225, .T. ) ;
#262 = DIRECTION ( 'NONE',  ( 1.000000000000000000, 0.000000000000000000, 0.000000000000000000 ) ) ;
#263 = VERTEX_POINT ( 'NONE', #155 ) ;
#264 = AXIS2_PLACEMENT_3D ( 'NONE', #234, #209, #172 ) ;
#265 = FACE_OUTER_BOUND ( 'NONE', #95, .T. ) ;
#266 = CC_DESIGN_APPROVAL ( #207, ( #22 ) ) ;
#267 = FACE_BOUND ( 'NONE', #230, .T. ) ;
#268 = DIRECTION ( 'NONE',  ( 1.000000000000000000, 0.000000000000000000, 0.000000000000000000 ) ) ;
#269 = PERSON_AND_ORGANIZATION_ROLE ( 'creator' ) ;
#270 = ORIENTED_EDGE ( 'NONE', *, *, #118, .T. ) ;
#271 =( NAMED_UNIT ( * ) SI_UNIT ( $, .STERADIAN. ) SOLID_ANGLE_UNIT ( ) );
#272 = ORIENTED_EDGE ( 'NONE', *, *, #141, .T. ) ;
#273 = DATE_AND_TIME ( #144, #130 ) ;
#274 = COORDINATED_UNIVERSAL_TIME_OFFSET ( 8, 0, .BEHIND. ) ;
#275 = EDGE_LOOP ( 'NONE', ( #99 ) ) ;
#276 = CIRCLE ( 'NONE', #228, 0.07199999999999999456 ) ;
#277 = CARTESIAN_POINT ( 'NONE',  ( 0.000000000000000000, 0.000000000000000000, 0.000000000000000000 ) ) ;
#278 =( GEOMETRIC_REPRESENTATION_CONTEXT ( 3 ) GLOBAL_UNCERTAINTY_ASSIGNED_CONTEXT ( ( #32 ) ) GLOBAL_UNIT_ASSIGNED_CONTEXT ( ( #201, #117, #271 ) ) REPRESENTATION_CONTEXT ( 'NONE', 'WORKASPACE' ) );
#279 = CARTESIAN_POINT ( 'NONE',  ( 0.5999999999999999778, 0.000000000000000000, 0.000000000000000000 ) ) ;
#280 = EDGE_CURVE ( 'NONE', #64, #64, #90, .T. ) ;
#281 = CARTESIAN_POINT ( 'NONE',  ( 0.2000000000000000111, 0.000000000000000000, 0.000000000000000000 ) ) ;
#282 = CYLINDRICAL_SURFACE ( 'NONE', #89, 0.07199999999999999456 ) ;
#283 = CC_DESIGN_APPROVAL ( #289, ( #231 ) ) ;
#284 = DIRECTION ( 'NONE',  ( 0.000000000000000000, 0.000000000000000000, -1.000000000000000000 ) ) ;
#285 = CC_DESIGN_PERSON_AND_ORGANIZATION_ASSIGNMENT ( #244, #42, ( #22 ) ) ;
#286 = DIRECTION ( 'NONE',  ( 0.000000000000000000, 0.000000000000000000, 1.000000000000000000 ) ) ;
#287 = FACE_OUTER_BOUND ( 'NONE', #250, .T. ) ;
#288 = DIRECTION ( 'NONE',  ( 1.000000000000000000, 0.000000000000000000, 0.000000000000000000 ) ) ;
#289 = APPROVAL ( #47, 'UNSPECIFIED' ) ;
#290 = CARTESIAN_POINT ( 'NONE',  ( 0.000000000000000000, 0.000000000000000000, -0.07199999999999999456 ) ) ;
#291 = CLOSED_SHELL ( 'NONE', ( #294, #84, #40, #76, #251, #198, #125, #6, #88, #30, #258 ) ) ;
#292 = CIRCLE ( 'NONE', #57, 0.07199999999999999456 ) ;
#293 = VERTEX_POINT ( 'NONE', #200 ) ;
#294 = ADVANCED_FACE ( 'NONE', ( #111, #265 ), #199, .T. ) ;
#295 = DATE_AND_TIME ( #23, #238 ) ;
#296 = EDGE_LOOP ( 'NONE', ( #98 ) ) ;
#297 = DATE_TIME_ROLE ( 'classification_date' ) ;
#298 = EDGE_LOOP ( 'NONE', ( #100 ) ) ;
ENDSEC;
END-ISO-10303-21;
