ISO-10303-21;
HEADER;
FILE_DESCRIPTION (( 'STEP AP214' ),
    '1' );
FILE_NAME ('FMW284NG02_3D.step',
    '2025-04-10T14:36:53',
    ( '' ),
    ( '' ),
    'SwSTEP 2.0',
    'SolidWorks 2022',
    '' );
FILE_SCHEMA (( 'AUTOMOTIVE_DESIGN' ));
ENDSEC;

DATA;
#1 = AXIS2_PLACEMENT_3D ( 'NONE', #55, #167, #165 ) ;
#2 = DIRECTION ( 'NONE',  ( 0.000000000000000000, 0.000000000000000000, 1.000000000000000000 ) ) ;
#3 = DIRECTION ( 'NONE',  ( -1.000000000000000000, 1.224646799147353947E-16, 0.000000000000000000 ) ) ;
#4 = ADVANCED_FACE ( 'NONE', ( #80 ), #24, .T. ) ;
#5 = CIRCLE ( 'NONE', #131, 2.200787401574803237 ) ;
#6 = EDGE_LOOP ( 'NONE', ( #16, #122, #83, #54 ) ) ;
#7 =( NAMED_UNIT ( * ) SI_UNIT ( $, .STERADIAN. ) SOLID_ANGLE_UNIT ( ) );
#8 =( CONVERSION_BASED_UNIT ( 'INCH', #73 ) LENGTH_UNIT ( ) NAMED_UNIT ( #49 ) );
#9 = AXIS2_PLACEMENT_3D ( 'NONE', #19, #72, #96 ) ;
#10 = UNCERTAINTY_MEASURE_WITH_UNIT (LENGTH_MEASURE( 1.000000000000000082E-05 ), #133, 'distance_accuracy_value', 'NONE');
#11 = DIMENSIONAL_EXPONENTS ( 1.000000000000000000, 0.000000000000000000, 0.000000000000000000, 0.000000000000000000, 0.000000000000000000, 0.000000000000000000, 0.000000000000000000 ) ;
#12 = ADVANCED_BREP_SHAPE_REPRESENTATION ( 'FMW284NG02_3D', ( #23, #1 ), #76 ) ;
#13 = PRODUCT_DEFINITION ( 'UNKNOWN', '', #65, #143 ) ;
#14 = DIRECTION ( 'NONE',  ( 0.000000000000000000, 0.000000000000000000, 1.000000000000000000 ) ) ;
#15 = SURFACE_SIDE_STYLE ('',( #43 ) ) ;
#16 = ORIENTED_EDGE ( 'NONE', *, *, #91, .F. ) ;
#17 = LENGTH_MEASURE_WITH_UNIT ( LENGTH_MEASURE( 0.02539999999999999897 ), #40 );
#18 = DIRECTION ( 'NONE',  ( 0.000000000000000000, -1.000000000000000000, 0.000000000000000000 ) ) ;
#19 = CARTESIAN_POINT ( 'NONE',  ( 0.000000000000000000, 0.000000000000000000, 0.000000000000000000 ) ) ;
#20 = AXIS2_PLACEMENT_3D ( 'NONE', #136, #140, #32 ) ;
#21 = AXIS2_PLACEMENT_3D ( 'NONE', #158, #18, #162 ) ;
#22 = EDGE_CURVE ( 'NONE', #159, #166, #77, .T. ) ;
#23 = MANIFOLD_SOLID_BREP ( 'Sweep2', #128 ) ;
#24 = TOROIDAL_SURFACE ( 'NONE', #79, 2.094488188976378229, 0.1062992125984253827 ) ;
#25 = ADVANCED_FACE ( 'NONE', ( #161 ), #31, .T. ) ;
#26 = UNCERTAINTY_MEASURE_WITH_UNIT (LENGTH_MEASURE( 1.000000000000000082E-05 ), #8, 'distance_accuracy_value', 'NONE');
#27 = SURFACE_STYLE_FILL_AREA ( #52 ) ;
#28 = TOROIDAL_SURFACE ( 'NONE', #112, 2.094488188976378229, 0.1062992125984253827 ) ;
#29 = FACE_OUTER_BOUND ( 'NONE', #109, .T. ) ;
#30 = ORIENTED_EDGE ( 'NONE', *, *, #42, .T. ) ;
#31 = TOROIDAL_SURFACE ( 'NONE', #102, 2.094488188976378229, 0.1062992125984253827 ) ;
#32 = DIRECTION ( 'NONE',  ( 1.000000000000000000, 0.000000000000000000, 0.000000000000000000 ) ) ;
#33 =( NAMED_UNIT ( * ) PLANE_ANGLE_UNIT ( ) SI_UNIT ( $, .RADIAN. ) );
#34 =( GEOMETRIC_REPRESENTATION_CONTEXT ( 3 ) GLOBAL_UNCERTAINTY_ASSIGNED_CONTEXT ( ( #26 ) ) GLOBAL_UNIT_ASSIGNED_CONTEXT ( ( #8, #33, #130 ) ) REPRESENTATION_CONTEXT ( 'NONE', 'WORKASPACE' ) );
#35 = EDGE_CURVE ( 'NONE', #166, #142, #5, .T. ) ;
#36 = LENGTH_MEASURE_WITH_UNIT ( LENGTH_MEASURE( 0.02539999999999999897 ), #135 );
#37 = SURFACE_STYLE_USAGE ( .BOTH. , #41 ) ;
#38 = CIRCLE ( 'NONE', #144, 1.988188976377952999 ) ;
#39 = CARTESIAN_POINT ( 'NONE',  ( 0.000000000000000000, 0.000000000000000000, 0.000000000000000000 ) ) ;
#40 =( LENGTH_UNIT ( ) NAMED_UNIT ( * ) SI_UNIT ( $, .METRE. ) );
#41 = SURFACE_SIDE_STYLE ('',( #27 ) ) ;
#42 = EDGE_CURVE ( 'NONE', #103, #159, #38, .T. ) ;
#43 = SURFACE_STYLE_FILL_AREA ( #164 ) ;
#44 = ORIENTED_EDGE ( 'NONE', *, *, #22, .T. ) ;
#45 = PRODUCT_CONTEXT ( 'NONE', #99, 'mechanical' ) ;
#46 = AXIS2_PLACEMENT_3D ( 'NONE', #98, #152, #106 ) ;
#47 = DIMENSIONAL_EXPONENTS ( 1.000000000000000000, 0.000000000000000000, 0.000000000000000000, 0.000000000000000000, 0.000000000000000000, 0.000000000000000000, 0.000000000000000000 ) ;
#48 = CIRCLE ( 'NONE', #9, 2.200787401574803237 ) ;
#49 = DIMENSIONAL_EXPONENTS ( 1.000000000000000000, 0.000000000000000000, 0.000000000000000000, 0.000000000000000000, 0.000000000000000000, 0.000000000000000000, 0.000000000000000000 ) ;
#50 = AXIS2_PLACEMENT_3D ( 'NONE', #108, #58, #3 ) ;
#51 = CARTESIAN_POINT ( 'NONE',  ( 0.000000000000000000, 0.000000000000000000, 0.000000000000000000 ) ) ;
#52 = FILL_AREA_STYLE ('',( #118 ) ) ;
#53 = DIRECTION ( 'NONE',  ( -1.000000000000000000, 1.224646799147353947E-16, 0.000000000000000000 ) ) ;
#54 = ORIENTED_EDGE ( 'NONE', *, *, #129, .F. ) ;
#55 = CARTESIAN_POINT ( 'NONE',  ( 0.000000000000000000, 0.000000000000000000, 0.000000000000000000 ) ) ;
#56 = DIRECTION ( 'NONE',  ( 1.224646799147353207E-16, 1.000000000000000000, -0.000000000000000000 ) ) ;
#57 = ORIENTED_EDGE ( 'NONE', *, *, #156, .F. ) ;
#58 = DIRECTION ( 'NONE',  ( 1.224646799147353207E-16, 1.000000000000000000, -0.000000000000000000 ) ) ;
#59 = ORIENTED_EDGE ( 'NONE', *, *, #63, .F. ) ;
#60 = FILL_AREA_STYLE_COLOUR ( '', #62 ) ;
#61 = CIRCLE ( 'NONE', #113, 0.1062992125984252439 ) ;
#62 = COLOUR_RGB ( '',0.7921568627450980005, 0.8196078431372548767, 0.9333333333333333481 ) ;
#63 = EDGE_CURVE ( 'NONE', #142, #103, #121, .T. ) ;
#64 = MECHANICAL_DESIGN_GEOMETRIC_PRESENTATION_REPRESENTATION (  '', ( #75 ), #34 ) ;
#65 = PRODUCT_DEFINITION_FORMATION_WITH_SPECIFIED_SOURCE ( 'ANY', '', #124, .NOT_KNOWN. ) ;
#66 = DIRECTION ( 'NONE',  ( 1.000000000000000000, 0.000000000000000000, 0.000000000000000000 ) ) ;
#67 = SURFACE_STYLE_USAGE ( .BOTH. , #15 ) ;
#68 =( NAMED_UNIT ( * ) SI_UNIT ( $, .STERADIAN. ) SOLID_ANGLE_UNIT ( ) );
#69 = CARTESIAN_POINT ( 'NONE',  ( 0.000000000000000000, 0.000000000000000000, -1.301789904605456361E-17 ) ) ;
#70 = CIRCLE ( 'NONE', #46, 0.1062992125984253827 ) ;
#71 = ORIENTED_EDGE ( 'NONE', *, *, #134, .T. ) ;
#72 = DIRECTION ( 'NONE',  ( 0.000000000000000000, 0.000000000000000000, 1.000000000000000000 ) ) ;
#73 = LENGTH_MEASURE_WITH_UNIT ( LENGTH_MEASURE( 0.02539999999999999897 ), #154 );
#74 = CARTESIAN_POINT ( 'NONE',  ( 2.200787401574803237, 0.000000000000000000, 0.000000000000000000 ) ) ;
#75 = STYLED_ITEM ( 'NONE', ( #123 ), #12 ) ;
#76 =( GEOMETRIC_REPRESENTATION_CONTEXT ( 3 ) GLOBAL_UNCERTAINTY_ASSIGNED_CONTEXT ( ( #138 ) ) GLOBAL_UNIT_ASSIGNED_CONTEXT ( ( #89, #92, #7 ) ) REPRESENTATION_CONTEXT ( 'NONE', 'WORKASPACE' ) );
#77 = CIRCLE ( 'NONE', #21, 0.1062992125984253827 ) ;
#78 = ORIENTED_EDGE ( 'NONE', *, *, #134, .F. ) ;
#79 = AXIS2_PLACEMENT_3D ( 'NONE', #82, #139, #66 ) ;
#80 = FACE_OUTER_BOUND ( 'NONE', #94, .T. ) ;
#81 = DIRECTION ( 'NONE',  ( 1.000000000000000000, 0.000000000000000000, 0.000000000000000000 ) ) ;
#82 = CARTESIAN_POINT ( 'NONE',  ( 0.000000000000000000, 0.000000000000000000, 0.000000000000000000 ) ) ;
#83 = ORIENTED_EDGE ( 'NONE', *, *, #63, .T. ) ;
#84 = DIRECTION ( 'NONE',  ( 0.000000000000000000, 0.000000000000000000, 1.000000000000000000 ) ) ;
#85 = STYLED_ITEM ( 'NONE', ( #148 ), #23 ) ;
#86 = CARTESIAN_POINT ( 'NONE',  ( -2.200787401574803237, 2.695187246942403946E-16, 0.000000000000000000 ) ) ;
#87 =( GEOMETRIC_REPRESENTATION_CONTEXT ( 3 ) GLOBAL_UNCERTAINTY_ASSIGNED_CONTEXT ( ( #10 ) ) GLOBAL_UNIT_ASSIGNED_CONTEXT ( ( #133, #150, #68 ) ) REPRESENTATION_CONTEXT ( 'NONE', 'WORKASPACE' ) );
#88 = ORIENTED_EDGE ( 'NONE', *, *, #156, .T. ) ;
#89 =( CONVERSION_BASED_UNIT ( 'INCH', #17 ) LENGTH_UNIT ( ) NAMED_UNIT ( #47 ) );
#90 = ORIENTED_EDGE ( 'NONE', *, *, #35, .F. ) ;
#91 = EDGE_CURVE ( 'NONE', #166, #159, #70, .T. ) ;
#92 =( NAMED_UNIT ( * ) PLANE_ANGLE_UNIT ( ) SI_UNIT ( $, .RADIAN. ) );
#93 = DIRECTION ( 'NONE',  ( 0.000000000000000000, 0.000000000000000000, 1.000000000000000000 ) ) ;
#94 = EDGE_LOOP ( 'NONE', ( #59, #88, #101, #160 ) ) ;
#95 = SHAPE_DEFINITION_REPRESENTATION ( #127, #12 ) ;
#96 = DIRECTION ( 'NONE',  ( 1.000000000000000000, 0.000000000000000000, 0.000000000000000000 ) ) ;
#97 = CIRCLE ( 'NONE', #115, 1.988188976377952999 ) ;
#98 = CARTESIAN_POINT ( 'NONE',  ( 2.094488188976378229, 0.000000000000000000, 0.000000000000000000 ) ) ;
#99 = APPLICATION_CONTEXT ( 'automotive_design' ) ;
#100 = APPLICATION_PROTOCOL_DEFINITION ( 'draft international standard', 'automotive_design', 1998, #114 ) ;
#101 = ORIENTED_EDGE ( 'NONE', *, *, #91, .T. ) ;
#102 = AXIS2_PLACEMENT_3D ( 'NONE', #51, #93, #116 ) ;
#103 = VERTEX_POINT ( 'NONE', #111 ) ;
#104 = DIRECTION ( 'NONE',  ( 1.000000000000000000, 0.000000000000000000, 0.000000000000000000 ) ) ;
#105 = ORIENTED_EDGE ( 'NONE', *, *, #129, .T. ) ;
#106 = DIRECTION ( 'NONE',  ( 0.000000000000000000, 0.000000000000000000, -1.000000000000000000 ) ) ;
#107 = PRESENTATION_LAYER_ASSIGNMENT (  '', '', ( #75 ) ) ;
#108 = CARTESIAN_POINT ( 'NONE',  ( -2.094488188976378229, 2.565008256481858310E-16, 0.000000000000000000 ) ) ;
#109 = EDGE_LOOP ( 'NONE', ( #57, #78, #30, #44 ) ) ;
#110 = CARTESIAN_POINT ( 'NONE',  ( 0.000000000000000000, 0.000000000000000000, 0.000000000000000000 ) ) ;
#111 = CARTESIAN_POINT ( 'NONE',  ( -1.988188976377952999, 2.434829266021312181E-16, -1.301789904605458056E-17 ) ) ;
#112 = AXIS2_PLACEMENT_3D ( 'NONE', #110, #149, #120 ) ;
#113 = AXIS2_PLACEMENT_3D ( 'NONE', #119, #56, #53 ) ;
#114 = APPLICATION_CONTEXT ( 'automotive_design' ) ;
#115 = AXIS2_PLACEMENT_3D ( 'NONE', #69, #84, #81 ) ;
#116 = DIRECTION ( 'NONE',  ( 1.000000000000000000, 0.000000000000000000, 0.000000000000000000 ) ) ;
#117 = ADVANCED_FACE ( 'NONE', ( #29 ), #28, .T. ) ;
#118 = FILL_AREA_STYLE_COLOUR ( '', #145 ) ;
#119 = CARTESIAN_POINT ( 'NONE',  ( -2.094488188976378229, 2.565008256481858310E-16, 0.000000000000000000 ) ) ;
#120 = DIRECTION ( 'NONE',  ( 1.000000000000000000, 0.000000000000000000, 0.000000000000000000 ) ) ;
#121 = CIRCLE ( 'NONE', #50, 0.1062992125984252439 ) ;
#122 = ORIENTED_EDGE ( 'NONE', *, *, #35, .T. ) ;
#123 = PRESENTATION_STYLE_ASSIGNMENT (( #67 ) ) ;
#124 = PRODUCT ( 'FMW284NG02_3D', 'FMW284NG02_3D', '', ( #45 ) ) ;
#125 = DIRECTION ( 'NONE',  ( 1.000000000000000000, 0.000000000000000000, 0.000000000000000000 ) ) ;
#126 = EDGE_LOOP ( 'NONE', ( #90, #146, #105, #71 ) ) ;
#127 = PRODUCT_DEFINITION_SHAPE ( 'NONE', 'NONE',  #13 ) ;
#128 = CLOSED_SHELL ( 'NONE', ( #4, #25, #155, #117 ) ) ;
#129 = EDGE_CURVE ( 'NONE', #159, #103, #97, .T. ) ;
#130 =( NAMED_UNIT ( * ) SI_UNIT ( $, .STERADIAN. ) SOLID_ANGLE_UNIT ( ) );
#131 = AXIS2_PLACEMENT_3D ( 'NONE', #39, #2, #104 ) ;
#132 = PRODUCT_RELATED_PRODUCT_CATEGORY ( 'part', '', ( #124 ) ) ;
#133 =( CONVERSION_BASED_UNIT ( 'INCH', #36 ) LENGTH_UNIT ( ) NAMED_UNIT ( #11 ) );
#134 = EDGE_CURVE ( 'NONE', #103, #142, #61, .T. ) ;
#135 =( LENGTH_UNIT ( ) NAMED_UNIT ( * ) SI_UNIT ( $, .METRE. ) );
#136 = CARTESIAN_POINT ( 'NONE',  ( 0.000000000000000000, 0.000000000000000000, 0.000000000000000000 ) ) ;
#137 = FACE_OUTER_BOUND ( 'NONE', #126, .T. ) ;
#138 = UNCERTAINTY_MEASURE_WITH_UNIT (LENGTH_MEASURE( 1.000000000000000082E-05 ), #89, 'distance_accuracy_value', 'NONE');
#139 = DIRECTION ( 'NONE',  ( 0.000000000000000000, 0.000000000000000000, 1.000000000000000000 ) ) ;
#140 = DIRECTION ( 'NONE',  ( 0.000000000000000000, 0.000000000000000000, 1.000000000000000000 ) ) ;
#141 = MECHANICAL_DESIGN_GEOMETRIC_PRESENTATION_REPRESENTATION (  '', ( #85 ), #87 ) ;
#142 = VERTEX_POINT ( 'NONE', #86 ) ;
#143 = PRODUCT_DEFINITION_CONTEXT ( 'detailed design', #114, 'design' ) ;
#144 = AXIS2_PLACEMENT_3D ( 'NONE', #147, #14, #125 ) ;
#145 = COLOUR_RGB ( '',0.7921568627450980005, 0.8196078431372548767, 0.9333333333333333481 ) ;
#146 = ORIENTED_EDGE ( 'NONE', *, *, #22, .F. ) ;
#147 = CARTESIAN_POINT ( 'NONE',  ( 0.000000000000000000, 0.000000000000000000, -1.301789904605456361E-17 ) ) ;
#148 = PRESENTATION_STYLE_ASSIGNMENT (( #37 ) ) ;
#149 = DIRECTION ( 'NONE',  ( 0.000000000000000000, 0.000000000000000000, 1.000000000000000000 ) ) ;
#150 =( NAMED_UNIT ( * ) PLANE_ANGLE_UNIT ( ) SI_UNIT ( $, .RADIAN. ) );
#151 = TOROIDAL_SURFACE ( 'NONE', #20, 2.094488188976378229, 0.1062992125984253827 ) ;
#152 = DIRECTION ( 'NONE',  ( 0.000000000000000000, -1.000000000000000000, 0.000000000000000000 ) ) ;
#153 = APPLICATION_PROTOCOL_DEFINITION ( 'draft international standard', 'automotive_design', 1998, #99 ) ;
#154 =( LENGTH_UNIT ( ) NAMED_UNIT ( * ) SI_UNIT ( $, .METRE. ) );
#155 = ADVANCED_FACE ( 'NONE', ( #137 ), #151, .T. ) ;
#156 = EDGE_CURVE ( 'NONE', #142, #166, #48, .T. ) ;
#157 = PRESENTATION_LAYER_ASSIGNMENT (  '', '', ( #85 ) ) ;
#158 = CARTESIAN_POINT ( 'NONE',  ( 2.094488188976378229, 0.000000000000000000, 0.000000000000000000 ) ) ;
#159 = VERTEX_POINT ( 'NONE', #163 ) ;
#160 = ORIENTED_EDGE ( 'NONE', *, *, #42, .F. ) ;
#161 = FACE_OUTER_BOUND ( 'NONE', #6, .T. ) ;
#162 = DIRECTION ( 'NONE',  ( 0.000000000000000000, 0.000000000000000000, -1.000000000000000000 ) ) ;
#163 = CARTESIAN_POINT ( 'NONE',  ( 1.988188976377952999, 0.000000000000000000, -1.301789904605458056E-17 ) ) ;
#164 = FILL_AREA_STYLE ('',( #60 ) ) ;
#165 = DIRECTION ( 'NONE',  ( 1.000000000000000000, 0.000000000000000000, 0.000000000000000000 ) ) ;
#166 = VERTEX_POINT ( 'NONE', #74 ) ;
#167 = DIRECTION ( 'NONE',  ( 0.000000000000000000, 0.000000000000000000, 1.000000000000000000 ) ) ;
ENDSEC;
END-ISO-10303-21;
