ISO-10303-21;
HEADER;
FILE_DESCRIPTION (( 'STEP AP214' ),
    '1' );
FILE_NAME ('FMW284GG02_3D.step',
    '2025-04-10T14:36:58',
    ( '' ),
    ( '' ),
    'SwSTEP 2.0',
    'SolidWorks 2022',
    '' );
FILE_SCHEMA (( 'AUTOMOTIVE_DESIGN' ));
ENDSEC;

DATA;
#1 = LENGTH_MEASURE_WITH_UNIT ( LENGTH_MEASURE( 0.02539999999999999897 ), #103 );
#2 = MANIFOLD_SOLID_BREP ( 'Sweep2', #81 ) ;
#3 = ADVANCED_FACE ( 'NONE', ( #151 ), #75, .T. ) ;
#4 = FILL_AREA_STYLE_COLOUR ( '', #47 ) ;
#5 = ORIENTED_EDGE ( 'NONE', *, *, #159, .T. ) ;
#6 = AXIS2_PLACEMENT_3D ( 'NONE', #85, #126, #89 ) ;
#7 = ORIENTED_EDGE ( 'NONE', *, *, #34, .F. ) ;
#8 = DIRECTION ( 'NONE',  ( 1.000000000000000000, 0.000000000000000000, 0.000000000000000000 ) ) ;
#9 = SURFACE_SIDE_STYLE ('',( #69 ) ) ;
#10 = CIRCLE ( 'NONE', #93, 0.1062992125984253827 ) ;
#11 =( NAMED_UNIT ( * ) SI_UNIT ( $, .STERADIAN. ) SOLID_ANGLE_UNIT ( ) );
#12 =( CONVERSION_BASED_UNIT ( 'INCH', #124 ) LENGTH_UNIT ( ) NAMED_UNIT ( #111 ) );
#13 = PRODUCT_DEFINITION_SHAPE ( 'NONE', 'NONE',  #87 ) ;
#14 = DIRECTION ( 'NONE',  ( 1.000000000000000000, 0.000000000000000000, 0.000000000000000000 ) ) ;
#15 =( CONVERSION_BASED_UNIT ( 'INCH', #1 ) LENGTH_UNIT ( ) NAMED_UNIT ( #26 ) );
#16 =( GEOMETRIC_REPRESENTATION_CONTEXT ( 3 ) GLOBAL_UNCERTAINTY_ASSIGNED_CONTEXT ( ( #21 ) ) GLOBAL_UNIT_ASSIGNED_CONTEXT ( ( #15, #102, #127 ) ) REPRESENTATION_CONTEXT ( 'NONE', 'WORKASPACE' ) );
#17 = APPLICATION_CONTEXT ( 'automotive_design' ) ;
#18 = MECHANICAL_DESIGN_GEOMETRIC_PRESENTATION_REPRESENTATION (  '', ( #35 ), #164 ) ;
#19 = AXIS2_PLACEMENT_3D ( 'NONE', #62, #112, #28 ) ;
#20 = EDGE_CURVE ( 'NONE', #48, #66, #143, .T. ) ;
#21 = UNCERTAINTY_MEASURE_WITH_UNIT (LENGTH_MEASURE( 1.000000000000000082E-05 ), #15, 'distance_accuracy_value', 'NONE');
#22 =( NAMED_UNIT ( * ) PLANE_ANGLE_UNIT ( ) SI_UNIT ( $, .RADIAN. ) );
#23 = ORIENTED_EDGE ( 'NONE', *, *, #159, .F. ) ;
#24 = ORIENTED_EDGE ( 'NONE', *, *, #122, .T. ) ;
#25 = ORIENTED_EDGE ( 'NONE', *, *, #46, .T. ) ;
#26 = DIMENSIONAL_EXPONENTS ( 1.000000000000000000, 0.000000000000000000, 0.000000000000000000, 0.000000000000000000, 0.000000000000000000, 0.000000000000000000, 0.000000000000000000 ) ;
#27 = DIRECTION ( 'NONE',  ( 1.000000000000000000, 0.000000000000000000, 0.000000000000000000 ) ) ;
#28 = DIRECTION ( 'NONE',  ( 1.000000000000000000, 0.000000000000000000, 0.000000000000000000 ) ) ;
#29 = CARTESIAN_POINT ( 'NONE',  ( 2.200787401574803237, 0.000000000000000000, 0.000000000000000000 ) ) ;
#30 = DIMENSIONAL_EXPONENTS ( 1.000000000000000000, 0.000000000000000000, 0.000000000000000000, 0.000000000000000000, 0.000000000000000000, 0.000000000000000000, 0.000000000000000000 ) ;
#31 = FACE_OUTER_BOUND ( 'NONE', #82, .T. ) ;
#32 = CARTESIAN_POINT ( 'NONE',  ( 2.094488188976378229, 0.000000000000000000, 0.000000000000000000 ) ) ;
#33 = ADVANCED_FACE ( 'NONE', ( #149 ), #91, .T. ) ;
#34 = EDGE_CURVE ( 'NONE', #134, #137, #158, .T. ) ;
#35 = STYLED_ITEM ( 'NONE', ( #104 ), #2 ) ;
#36 = AXIS2_PLACEMENT_3D ( 'NONE', #57, #105, #128 ) ;
#37 = FILL_AREA_STYLE ('',( #4 ) ) ;
#38 = CIRCLE ( 'NONE', #6, 0.1062992125984253827 ) ;
#39 = ORIENTED_EDGE ( 'NONE', *, *, #20, .F. ) ;
#40 = DIRECTION ( 'NONE',  ( 0.000000000000000000, 0.000000000000000000, 1.000000000000000000 ) ) ;
#41 = CARTESIAN_POINT ( 'NONE',  ( 0.000000000000000000, 0.000000000000000000, -1.301789904605456361E-17 ) ) ;
#42 = AXIS2_PLACEMENT_3D ( 'NONE', #153, #154, #152 ) ;
#43 = CARTESIAN_POINT ( 'NONE',  ( -1.988188976377952999, 2.434829266021312181E-16, -1.301789904605458056E-17 ) ) ;
#44 = FACE_OUTER_BOUND ( 'NONE', #95, .T. ) ;
#45 = DIRECTION ( 'NONE',  ( 1.224646799147353207E-16, 1.000000000000000000, -0.000000000000000000 ) ) ;
#46 = EDGE_CURVE ( 'NONE', #137, #66, #129, .T. ) ;
#47 = COLOUR_RGB ( '',0.7921568627450980005, 0.8196078431372548767, 0.9333333333333333481 ) ;
#48 = VERTEX_POINT ( 'NONE', #29 ) ;
#49 =( NAMED_UNIT ( * ) SI_UNIT ( $, .STERADIAN. ) SOLID_ANGLE_UNIT ( ) );
#50 = ORIENTED_EDGE ( 'NONE', *, *, #122, .F. ) ;
#51 = ORIENTED_EDGE ( 'NONE', *, *, #156, .T. ) ;
#52 = DIRECTION ( 'NONE',  ( -1.000000000000000000, 1.224646799147353947E-16, 0.000000000000000000 ) ) ;
#53 = CARTESIAN_POINT ( 'NONE',  ( 1.988188976377952999, 0.000000000000000000, -1.301789904605458056E-17 ) ) ;
#54 = FILL_AREA_STYLE_COLOUR ( '', #90 ) ;
#55 = SURFACE_STYLE_USAGE ( .BOTH. , #9 ) ;
#56 = PRODUCT_CONTEXT ( 'NONE', #147, 'mechanical' ) ;
#57 = CARTESIAN_POINT ( 'NONE',  ( 0.000000000000000000, 0.000000000000000000, 0.000000000000000000 ) ) ;
#58 = LENGTH_MEASURE_WITH_UNIT ( LENGTH_MEASURE( 0.02539999999999999897 ), #65 );
#59 = PRESENTATION_LAYER_ASSIGNMENT (  '', '', ( #135 ) ) ;
#60 = DIRECTION ( 'NONE',  ( 0.000000000000000000, 0.000000000000000000, -1.000000000000000000 ) ) ;
#61 = AXIS2_PLACEMENT_3D ( 'NONE', #121, #160, #98 ) ;
#62 = CARTESIAN_POINT ( 'NONE',  ( 0.000000000000000000, 0.000000000000000000, 0.000000000000000000 ) ) ;
#63 = AXIS2_PLACEMENT_3D ( 'NONE', #41, #139, #14 ) ;
#64 = FILL_AREA_STYLE ('',( #54 ) ) ;
#65 =( LENGTH_UNIT ( ) NAMED_UNIT ( * ) SI_UNIT ( $, .METRE. ) );
#66 = VERTEX_POINT ( 'NONE', #73 ) ;
#67 =( CONVERSION_BASED_UNIT ( 'INCH', #58 ) LENGTH_UNIT ( ) NAMED_UNIT ( #30 ) );
#68 = CARTESIAN_POINT ( 'NONE',  ( 0.000000000000000000, 0.000000000000000000, 0.000000000000000000 ) ) ;
#69 = SURFACE_STYLE_FILL_AREA ( #64 ) ;
#70 = SURFACE_STYLE_FILL_AREA ( #37 ) ;
#71 = CARTESIAN_POINT ( 'NONE',  ( 0.000000000000000000, 0.000000000000000000, 0.000000000000000000 ) ) ;
#72 = TOROIDAL_SURFACE ( 'NONE', #19, 2.094488188976378229, 0.1062992125984253827 ) ;
#73 = CARTESIAN_POINT ( 'NONE',  ( -2.200787401574803237, 2.695187246942403946E-16, 0.000000000000000000 ) ) ;
#74 = DIRECTION ( 'NONE',  ( 0.000000000000000000, 0.000000000000000000, 1.000000000000000000 ) ) ;
#75 = TOROIDAL_SURFACE ( 'NONE', #115, 2.094488188976378229, 0.1062992125984253827 ) ;
#76 = DIRECTION ( 'NONE',  ( 0.000000000000000000, -1.000000000000000000, 0.000000000000000000 ) ) ;
#77 = AXIS2_PLACEMENT_3D ( 'NONE', #100, #45, #167 ) ;
#78 = EDGE_CURVE ( 'NONE', #48, #134, #38, .T. ) ;
#79 = EDGE_LOOP ( 'NONE', ( #39, #50, #163, #25 ) ) ;
#80 = PRESENTATION_STYLE_ASSIGNMENT (( #123 ) ) ;
#81 = CLOSED_SHELL ( 'NONE', ( #3, #97, #33, #133 ) ) ;
#82 = EDGE_LOOP ( 'NONE', ( #108, #165, #51, #7 ) ) ;
#83 = SURFACE_SIDE_STYLE ('',( #70 ) ) ;
#84 = ORIENTED_EDGE ( 'NONE', *, *, #46, .F. ) ;
#85 = CARTESIAN_POINT ( 'NONE',  ( 2.094488188976378229, 0.000000000000000000, 0.000000000000000000 ) ) ;
#86 = AXIS2_PLACEMENT_3D ( 'NONE', #150, #155, #109 ) ;
#87 = PRODUCT_DEFINITION ( 'UNKNOWN', '', #157, #144 ) ;
#88 = CARTESIAN_POINT ( 'NONE',  ( -2.094488188976378229, 2.565008256481858310E-16, 0.000000000000000000 ) ) ;
#89 = DIRECTION ( 'NONE',  ( 0.000000000000000000, 0.000000000000000000, -1.000000000000000000 ) ) ;
#90 = COLOUR_RGB ( '',0.7921568627450980005, 0.8196078431372548767, 0.9333333333333333481 ) ;
#91 = TOROIDAL_SURFACE ( 'NONE', #36, 2.094488188976378229, 0.1062992125984253827 ) ;
#92 = CIRCLE ( 'NONE', #63, 1.988188976377952999 ) ;
#93 = AXIS2_PLACEMENT_3D ( 'NONE', #32, #76, #60 ) ;
#94 =( GEOMETRIC_REPRESENTATION_CONTEXT ( 3 ) GLOBAL_UNCERTAINTY_ASSIGNED_CONTEXT ( ( #161 ) ) GLOBAL_UNIT_ASSIGNED_CONTEXT ( ( #67, #22, #11 ) ) REPRESENTATION_CONTEXT ( 'NONE', 'WORKASPACE' ) );
#95 = EDGE_LOOP ( 'NONE', ( #136, #84, #5, #24 ) ) ;
#96 = SHAPE_DEFINITION_REPRESENTATION ( #13, #145 ) ;
#97 = ADVANCED_FACE ( 'NONE', ( #31 ), #125, .T. ) ;
#98 = DIRECTION ( 'NONE',  ( 1.000000000000000000, 0.000000000000000000, 0.000000000000000000 ) ) ;
#99 = ORIENTED_EDGE ( 'NONE', *, *, #156, .F. ) ;
#100 = CARTESIAN_POINT ( 'NONE',  ( -2.094488188976378229, 2.565008256481858310E-16, 0.000000000000000000 ) ) ;
#101 = AXIS2_PLACEMENT_3D ( 'NONE', #140, #74, #142 ) ;
#102 =( NAMED_UNIT ( * ) PLANE_ANGLE_UNIT ( ) SI_UNIT ( $, .RADIAN. ) );
#103 =( LENGTH_UNIT ( ) NAMED_UNIT ( * ) SI_UNIT ( $, .METRE. ) );
#104 = PRESENTATION_STYLE_ASSIGNMENT (( #55 ) ) ;
#105 = DIRECTION ( 'NONE',  ( 0.000000000000000000, 0.000000000000000000, 1.000000000000000000 ) ) ;
#106 =( LENGTH_UNIT ( ) NAMED_UNIT ( * ) SI_UNIT ( $, .METRE. ) );
#107 = AXIS2_PLACEMENT_3D ( 'NONE', #88, #166, #52 ) ;
#108 = ORIENTED_EDGE ( 'NONE', *, *, #78, .F. ) ;
#109 = DIRECTION ( 'NONE',  ( 1.000000000000000000, 0.000000000000000000, 0.000000000000000000 ) ) ;
#110 = PRODUCT ( 'FMW284GG02_3D', 'FMW284GG02_3D', '', ( #56 ) ) ;
#111 = DIMENSIONAL_EXPONENTS ( 1.000000000000000000, 0.000000000000000000, 0.000000000000000000, 0.000000000000000000, 0.000000000000000000, 0.000000000000000000, 0.000000000000000000 ) ;
#112 = DIRECTION ( 'NONE',  ( 0.000000000000000000, 0.000000000000000000, 1.000000000000000000 ) ) ;
#113 = CIRCLE ( 'NONE', #101, 2.200787401574803237 ) ;
#114 = EDGE_CURVE ( 'NONE', #66, #48, #113, .T. ) ;
#115 = AXIS2_PLACEMENT_3D ( 'NONE', #68, #40, #27 ) ;
#116 = EDGE_LOOP ( 'NONE', ( #99, #118, #132, #23 ) ) ;
#117 = MECHANICAL_DESIGN_GEOMETRIC_PRESENTATION_REPRESENTATION (  '', ( #135 ), #94 ) ;
#118 = ORIENTED_EDGE ( 'NONE', *, *, #114, .T. ) ;
#119 = APPLICATION_PROTOCOL_DEFINITION ( 'draft international standard', 'automotive_design', 1998, #17 ) ;
#120 = DIRECTION ( 'NONE',  ( 0.000000000000000000, 0.000000000000000000, 1.000000000000000000 ) ) ;
#121 = CARTESIAN_POINT ( 'NONE',  ( 0.000000000000000000, 0.000000000000000000, 0.000000000000000000 ) ) ;
#122 = EDGE_CURVE ( 'NONE', #134, #48, #10, .T. ) ;
#123 = SURFACE_STYLE_USAGE ( .BOTH. , #83 ) ;
#124 = LENGTH_MEASURE_WITH_UNIT ( LENGTH_MEASURE( 0.02539999999999999897 ), #106 );
#125 = TOROIDAL_SURFACE ( 'NONE', #42, 2.094488188976378229, 0.1062992125984253827 ) ;
#126 = DIRECTION ( 'NONE',  ( 0.000000000000000000, -1.000000000000000000, 0.000000000000000000 ) ) ;
#127 =( NAMED_UNIT ( * ) SI_UNIT ( $, .STERADIAN. ) SOLID_ANGLE_UNIT ( ) );
#128 = DIRECTION ( 'NONE',  ( 1.000000000000000000, 0.000000000000000000, 0.000000000000000000 ) ) ;
#129 = CIRCLE ( 'NONE', #77, 0.1062992125984252439 ) ;
#130 = PRESENTATION_LAYER_ASSIGNMENT (  '', '', ( #35 ) ) ;
#131 = APPLICATION_PROTOCOL_DEFINITION ( 'draft international standard', 'automotive_design', 1998, #147 ) ;
#132 = ORIENTED_EDGE ( 'NONE', *, *, #78, .T. ) ;
#133 = ADVANCED_FACE ( 'NONE', ( #44 ), #72, .T. ) ;
#134 = VERTEX_POINT ( 'NONE', #53 ) ;
#135 = STYLED_ITEM ( 'NONE', ( #80 ), #145 ) ;
#136 = ORIENTED_EDGE ( 'NONE', *, *, #114, .F. ) ;
#137 = VERTEX_POINT ( 'NONE', #43 ) ;
#138 =( NAMED_UNIT ( * ) PLANE_ANGLE_UNIT ( ) SI_UNIT ( $, .RADIAN. ) );
#139 = DIRECTION ( 'NONE',  ( 0.000000000000000000, 0.000000000000000000, 1.000000000000000000 ) ) ;
#140 = CARTESIAN_POINT ( 'NONE',  ( 0.000000000000000000, 0.000000000000000000, 0.000000000000000000 ) ) ;
#141 = UNCERTAINTY_MEASURE_WITH_UNIT (LENGTH_MEASURE( 1.000000000000000082E-05 ), #12, 'distance_accuracy_value', 'NONE');
#142 = DIRECTION ( 'NONE',  ( 1.000000000000000000, 0.000000000000000000, 0.000000000000000000 ) ) ;
#143 = CIRCLE ( 'NONE', #146, 2.200787401574803237 ) ;
#144 = PRODUCT_DEFINITION_CONTEXT ( 'detailed design', #17, 'design' ) ;
#145 = ADVANCED_BREP_SHAPE_REPRESENTATION ( 'FMW284GG02_3D', ( #2, #61 ), #16 ) ;
#146 = AXIS2_PLACEMENT_3D ( 'NONE', #71, #120, #8 ) ;
#147 = APPLICATION_CONTEXT ( 'automotive_design' ) ;
#148 = PRODUCT_RELATED_PRODUCT_CATEGORY ( 'part', '', ( #110 ) ) ;
#149 = FACE_OUTER_BOUND ( 'NONE', #79, .T. ) ;
#150 = CARTESIAN_POINT ( 'NONE',  ( 0.000000000000000000, 0.000000000000000000, -1.301789904605456361E-17 ) ) ;
#151 = FACE_OUTER_BOUND ( 'NONE', #116, .T. ) ;
#152 = DIRECTION ( 'NONE',  ( 1.000000000000000000, 0.000000000000000000, 0.000000000000000000 ) ) ;
#153 = CARTESIAN_POINT ( 'NONE',  ( 0.000000000000000000, 0.000000000000000000, 0.000000000000000000 ) ) ;
#154 = DIRECTION ( 'NONE',  ( 0.000000000000000000, 0.000000000000000000, 1.000000000000000000 ) ) ;
#155 = DIRECTION ( 'NONE',  ( 0.000000000000000000, 0.000000000000000000, 1.000000000000000000 ) ) ;
#156 = EDGE_CURVE ( 'NONE', #66, #137, #162, .T. ) ;
#157 = PRODUCT_DEFINITION_FORMATION_WITH_SPECIFIED_SOURCE ( 'ANY', '', #110, .NOT_KNOWN. ) ;
#158 = CIRCLE ( 'NONE', #86, 1.988188976377952999 ) ;
#159 = EDGE_CURVE ( 'NONE', #137, #134, #92, .T. ) ;
#160 = DIRECTION ( 'NONE',  ( 0.000000000000000000, 0.000000000000000000, 1.000000000000000000 ) ) ;
#161 = UNCERTAINTY_MEASURE_WITH_UNIT (LENGTH_MEASURE( 1.000000000000000082E-05 ), #67, 'distance_accuracy_value', 'NONE');
#162 = CIRCLE ( 'NONE', #107, 0.1062992125984252439 ) ;
#163 = ORIENTED_EDGE ( 'NONE', *, *, #34, .T. ) ;
#164 =( GEOMETRIC_REPRESENTATION_CONTEXT ( 3 ) GLOBAL_UNCERTAINTY_ASSIGNED_CONTEXT ( ( #141 ) ) GLOBAL_UNIT_ASSIGNED_CONTEXT ( ( #12, #138, #49 ) ) REPRESENTATION_CONTEXT ( 'NONE', 'WORKASPACE' ) );
#165 = ORIENTED_EDGE ( 'NONE', *, *, #20, .T. ) ;
#166 = DIRECTION ( 'NONE',  ( 1.224646799147353207E-16, 1.000000000000000000, -0.000000000000000000 ) ) ;
#167 = DIRECTION ( 'NONE',  ( -1.000000000000000000, 1.224646799147353947E-16, 0.000000000000000000 ) ) ;
ENDSEC;
END-ISO-10303-21;
